Tool - You Lied Chords & Tabs

 

You Lied Chords & Tabs

Tool Chords & Tabs

Version: 3 Type: Tab 0 ratings
1 star 2 stars 3 stars 4 stars 5 stars
comments

You Lied Tab

Song:You Lied
Band:TOOL
Album:Salival
Tabbed By:james silner

Tuning: Drop D [DADGBE]
Symbol Key
~ Let Note Ring
h Hammer On
p Pull-Off
/ Slide Up
\\ Slide Down
x Mute String

Ok, here goes. This is a song Tool does on their live CD, "Salival" It's a really good 
of how they balance mellow and heavy moods in music together and why they are the best 
ever! Also a great song to jam with because it's not too hard except for the solo which
I haven't figured out yet. LONG LIVE MAYNARD, ADAM,JUSTIN, AND DANNY!!!

[1:05]
E[----15----------------------15----12-15-12-12-15------|
B[14------14-17-14---14---------------------------------|
G[------------------------------------------------------|
D[------------------------------------------------------|
A[------------------------------------------------------|
D[------------------------------------------------------|

[1:13]
E[----15-------------15--------------|
B[14-----14-17-14-----14-17-14-------|
G[-----------------------------------|
D[-----------------------------------|
A[-----------------------------------|
D[-----------------------------------|

[1:22] Repeat x3
E[----------------------------------------|
B[10h12-12-12-12-13-13-13p10-10-----------|
G[----------------------------------------|
D[----------------------------------------|
A[----------------------------------------|
D[----------------------------------------|

[1:35]
E[---------------|
B[12-12-13-10----|
G[---------------|
D[---------------|
A[---------------|
D[---------------|

[1:40] Repeat x4
E[---------------------------------------------|
B[---------------------------------------------|
G[---------------------------------------------|
D[9--9----7h9-x-9-7h9-x-9-7h9-9-10-9-7---------|
A[9--9----7h9-x-9-7h9-x-9-7h9-9-10-9-7---------|
D[9--9----7h9-x-9-7h9-x-9-7h9-9-10-9-7---------|

[2:13]
E[----15--------15------------------------15-------15---12-15-12-12-15-12-15-|
B14---14-14--14--14-17-14\\12----14----14-14---------------------------------|
G[---------------------------------------------------------------------------|
D[---------------------------------------------------------------------------|
A[---------------------------------------------------------------------------|
D[---------------------------------------------------------------------------|

[2:21]
E[----15--------15-------------------------------15--------15--------------|
B[14----14-14----14----14-17-14\\12----14----14-14-----14----14-17-14\\12--|
G[-------------------------------------------------------------------------|
D[-------------------------------------------------------------------------|
A[-------------------------------------------------------------------------|
D[-------------------------------------------------------------------------|

[2:46]
E[----------------------------------------------------------------------|
B[----------------------------------------------------------------------|
G[4-4-4-4-4-4-4-4-6-6-6-6-6-6-6-6-7-7-7-7-7-7-7-7-9-9-9-9-9-9-9-9-------|
D[----------------------------------------------------------------------|
A[----------------------------------------------------------------------|
D[----------------------------------------------------------------------|

E[-------------------------------------------------------------------|
B[-------------------------------------------------------------------|
G[11----11----11----9-9-9-9----7-7-7----6-6\\2---2----2/4-4----------|
D[-------------------------------------------------------------------|
A[-------------------------------------------------------------------|
D[-------------------------------------------------------------------|
[ Tab from: http://www.guitartabs.cc/tabs/t/tool/you_lied_tab_ver_3.html ]
[3:37] Repeat x4
E[---------------------------------------------|
B[---------------------------------------------|
G[---------------------------------------------|
D[9--9----7h9-x-9-7h9-x-9-7h9-9-10-9-7---------|
A[9--9----7h9-x-9-7h9-x-9-7h9-9-10-9-7---------|
D[9--9----7h9-x-9-7h9-x-9-7h9-9-10-9-7---------|

[3:53] Repeat x2
E[-15--------15-------------------------------15---15---12-15-12-12-15-12-15-|
B14----14-14---14---14-17-14\\12----14----14-14------------------------------|
G[---------------------------------------------------------------------------|
D[---------------------------------------------------------------------------|
A[---------------------------------------------------------------------------|
D[---------------------------------------------------------------------------|

[4:42]
E[-----------------------------------------------------------------------|
B[-----------------------------------------------------------------------|
G[4-4-4-4-4-4-4-4-6-6-6-6-6-6-6-6-7-7-7-7-7-7-7-7-9-9-9-9-9-9-9-9--------|
D[-----------------------------------------------------------------------|
A[-----------------------------------------------------------------------|
D[-----------------------------------------------------------------------|

E[-------------------------------------------------------------------|
B[-------------------------------------------------------------------|
G[11----11----11----9-9-9-9----7-7-7----6-6\\2---2----2/4-4----------|
D[-------------------------------------------------------------------|
A[-------------------------------------------------------------------|
D[-------------------------------------------------------------------|

[5:32] Repeat x4
E[---------------------------------------------|
B[---------------------------------------------|
G[---------------------------------------------|
D[9--9----7h9-x-9-7h9-x-9-7h9-9-10-9-7---------|
A[9--9----7h9-x-9-7h9-x-9-7h9-9-10-9-7---------|
D[9--9----7h9-x-9-7h9-x-9-7h9-9-10-9-7---------|

[6:04] Solo
Sorry, haven't figured it out yet.


[6:37] Repeat x4
E[----------------------------------------|
B[10h12-12-12-12-13-13-13p10-10-----------|
G[----------------------------------------|
D[----------------------------------------|
A[----------------------------------------|
D[----------------------------------------|

[7:26] Repeat x4
E[----15----------------------------------------------------------------|
B[14-----14-17-14----10h12-12-12-12-13-13-13p10-10----------------------|
G[----------------------------------------------------------------------|
D[----------------------------------------------------------------------|
A[----------------------------------------------------------------------|
D[----------------------------------------------------------------------|

[8:19] Repeat x2
E[----------------------------------------------------|
B[----------------------------------------------------|
G[----------------------------------------------------|
D[9--9----7h9-x-9-7h9-x-9----9-7-3-0-9-7-3-0----------|
A[9--9----7h9-x-9-7h9-x-9----9-7-3-0-9-7-3-0----------|
D[9--9----7h9-x-9-7h9-x-9----9-7-3-0-9-7-3-0----------|

[8:35] Repeat x2
E[----------------------------------------------------|
B[----------------------------------------------------|
G[----------------------------------------------------|
D[9--9----7h9-x-9-7h9----10-10------------------------|
A[9--9----7h9-x-9-7h9----10-10------------------------|
D[9--9----7h9-x-9-7h9----10-10------------------------|

[8:46]
E[------------------------------------------------------------|
B[------------------------------------------------------------|
G[------------------------------------------------------------|
D[9--9----7h9-x-9-7h9----10-10~----10------10-----------------|
A[9--9----7h9-x-9-7h9----10-10~----10------10-----------------|
D[9--9----7h9-x-9-7h9----10-10~----10------10-----------------|



[8:53]
E[---------------------------------------------------------|
B[---------------------------------------------------------|
G[---------------------------------------------------------|
D[9--9----7h9-x-9~----10-10--------------------------------|
A[9--9----7h9-x-9~----10-10--------------------------------|
D[9--9----7h9-x-9~----10-10--------------------------------|
Comments