Tool - Triad Chords & Tabs

 

Triad Chords & Tabs

Tool Chords & Tabs

Version: 2 Type: Tab 0 ratings
1 star 2 stars 3 stars 4 stars 5 stars
comments

Triad Tab

Artist:tool
Song:triad
Tabber:james silver
Email: too_rockboy@msn.com
------
nh - natural harmonic   ph - pinch harmonic
pm - palm mute          x - muted string
h - hammer on           p - pull off
// - slide down         \\ - slide up
b - bend                ~~ - vibrato
x/// - pick scrape (directions same as slide)


****************
And hey - if the formating sucks visit my site for the properly
formatted tabs and blame it on the posting mechanism here...

****************

(distortion)


(fades in slowly)


e---------------------------------------------------------------------------|
b---------------------------------------------------------------------------|
g---------------------------------------------------------------------------|
d--x-2-2--x-2-2--x-2-2--x-2h3-2p0-0---x-2-2--x-2-2--x-2h3-2p0-0--2h3-2p0-0--|
a--x-2-2--x-2-2--x-2-2--x-2h3-2p0-0---x-2-2--x-2-2--x-2h3-2p0-0--2h3-2p0-0--|
d--x-2-2--x-2-2--x-2-2--x-2h3-2p0-0---x-2-2--x-2-2--x-2h3-2p0-0--2h3-2p0-0--|


solo


  ****Important Notes for the solo:***


  Adam uses an Epilady, wah pedal, and delay pedal for this solo but...


  1. Since it is rare to own an epilady most the general population of
guitar players
  don't have one, so this is tabbed out for playing without an Epilady. I
have written
  the solo out for use with just a pick, a wah pedal, and a delay pedal.


  2.  This is tabbed for guitars with two humbucker pickups, with the
pickup selector
  set to treble. I tabbed this on a Les Paul. This is as close as I can
get to the
  real sound.


  ************************************


(with wah closed, and slight delay)


e---------------------------------------|
b--[start at middle]--------------------|
g--[of neck pickup ]--------------------|
d-------------------[end at middle   ]--|
a--------x\\\\------[of bridge pickup]--|
d---------------------------------------|


e--------------------------------------[quick scrape over]--|
b--[start inbetween]-------------------[the bridge pickup]--|
g--[pickups        ]----------------------------------------|
d-------------------[end at middle   ]---x/-----------------|
a---------x\\\------[of bridge pickup]----------------------|
d-----------------------------------------------------------|


e-------------------------------------|
b--[start inbetween]------------------|
g--[pickups        ]------------------|
d-------------------[quick scrape  ]--|
a--------x\---------[towards bridge]--|
d-------------------------------------|


(wah open)


e----[move wah from     ]------------|
b----[from open to close]------------|
g------------------------------------|
d--2~~------------*slight feedback*--|
a------------------------------------|
d------------------------------------|


e----------------------------------------------------------|
b----------------------------------------------------------|
g------11--9-------7h9p7h9--7~~----9-7-9-7-9-10-9~~~-------|
d--[wah ]-[wah   ]-----------------------------------------|
a--[open]-[closed]-----------------------------------------|
d----------------------------------------------------------|


*rest*


e-------------------------------------|
b--[start near    ]-------------------|
g--[bridge, end at]-[wah   ]-[wah ]---|
d--[bridge pickup ]-[closed]-[open]---|
a-------------------------------------|
d----------x//-----------2----0-------|


*rest*


e-----[wah   ]------------------------------------------------|
b-----[closed]--------------------------------------12--------|
g-------------------------------------------10-9-------10~~~--|
d--3---2~~--*slight feedback*---\\\9--------------------------|
a-------------------------------------------------------------|
d-------------------------------------------------------------|


e----------------------------------------------|
b----------------------------------------------|
g--7-9-10-9----7-9-10-9----7-9-12-11---5---7---|
d----------------------------------------------|
a----------------------------------------------|
d----------------------------------------------|


e----------------------------------------------------|
b-----12---10---9------------------------------------|
g--9--------------9~~----*slight feedback*-----------|
d-------------------------------------------x\\\\\\--|
a----[wah open ]------[close wah]-----------x\\\\\\--|
d----------------------------------------------------|


end of solo


2:54
[ Tab from: http://www.guitartabs.cc/tabs/t/tool/triad_tab_ver_2.html ]
                       repeat 6x
e---------------------------------------------------------------------------|
b---------------------------------------------------------------------------|
g---------------------------------------------------------------------------|
d--x-2-2--x-2-2--x-2-2--x-2h3-2p0-0---x-2-2--x-2-2--x-2h3-2p0-0--2h3-2p0-0--|
a--x-2-2--x-2-2--x-2-2--x-2h3-2p0-0---x-2-2--x-2-2--x-2h3-2p0-0--2h3-2p0-0--|
d--x-2-2--x-2-2--x-2-2--x-2h3-2p0-0---x-2-2--x-2-2--x-2h3-2p0-0--2h3-2p0-0--|

                    repeat 2x
e--------------------------------------------------------------------------|
b--------------------------------------------------------------------------|
g--------------------------------------------------------------------------|
d--x-2-2--x-2-2--x-2-2--x-2h3-2p0-0---x-2-2--x-3\5-5-5--5-0-0-0--0-3-3-3---|
a--x-2-2--x-2-2--x-2-2--x-2h3-2p0-0---x-2-2--x-3\5-5-5--5-0-0-0--0-3-3-3---|
d--x-2-2--x-2-2--x-2-2--x-2h3-2p0-0---x-2-2--x-3\5-5-5--5-0-0-0--0-3-3-3---|


e--------------------------------------------------------------------------|
b--------------------------------------------------------------------------|
g--------------------------------------------------------------------------|
d--x-2-2--x-2-2--x-2-2--x-8p7-8p7-0----5---------------0-------------------|
a--x-2-2--x-2-2--x-2-2--x-8p7-8p7-0----5---------------0-------------------|
d--x-2-2--x-2-2--x-2-2--x-8p7-8p7-0----5---------------0-------------------|


e------------------------------------------------------------|
b------------------------------------------------------------|
g------------------------------------------------------------|
d--x-2-2--x-2-2--x-2-2--x-2-2--x-2-2--x-2-2--x-10-10-x-5-5---|
a--x-2-2--x-2-2--x-2-2--x-2-2--x-2-2--x-2-2--x-10-10-x-5-5---|
d--x-2-2--x-2-2--x-2-2--x-2-2--x-2-2--x-2-2--x-10-10-x-5-5---|


e--------------------------------------------------------------------|
b--------------------------------------------------------------------|
g--------------------------------------------------------------------|
d--x-2-2--x-2h3-2p0-0--x-7-7-x-5-5--x-2-2--x-2h3-2p0-0--x-8-8-x-7-7--|
a--x-2-2--x-2h3-2p0-0--x-7-7-x-5-5--x-2-2--x-2h3-2p0-0--x-8-8-x-7-7--|
d--x-2-2--x-2h3-2p0-0--x-7-7-x-5-5--x-2-2--x-2h3-2p0-0--x-8-8-x-7-7--|

e----------------------------------|
b----------------------------------|
g----------------------------------|
d--x-2-2--x-8p7-8p7--0--0-0-x-7-7--|
a--x-2-2--x-8p7-8p7--0--0-0-x-7-7--|
d--x-2-2--x-8p7-8p7--0--0-0-x-7-7--|


(left hand tapping)
e----------------|
b----------------|
g----------------|
d----------------| x38
a----------------|
d-h2p0-h2h3p2p0--|


 (fades in over the bar)
e-----------------------------------------------------------------------|
b-----------------------------------------------------------------------|
g-----------------------------------------------------------------------|
d--x-2-2--x-2-2--x-2-2--x-2h3-2p0-0---x-2-2--x-2-2--x-2-2--x-2h3-2p0-0--|
a--x-2-2--x-2-2--x-2-2--x-2h3-2p0-0---x-2-2--x-2-2--x-2-2--x-2h3-2p0-0--|
d--x-2-2--x-2-2--x-2-2--x-2h3-2p0-0---x-2-2--x-2-2--x-2-2--x-2h3-2p0-0--|

e----------------|
b----------------|
g----------------|
d--10--10-x-5-5--|
a--10--10-x-5-5--|
d--10--10-x-5-5--|

e--------------------------------------------------------------------|
b--------------------------------------------------------------------|
g--------------------------------------------------------------------|
d--x-2-2--x-2h3-2p0-0--x-7-7-x-5-5--x-2-2--x-2h3-2p0-0--x-8-8-x-7-7--|
a--x-2-2--x-2h3-2p0-0--x-7-7-x-5-5--x-2-2--x-2h3-2p0-0--x-8-8-x-7-7--|
d--x-2-2--x-2h3-2p0-0--x-7-7-x-5-5--x-2-2--x-2h3-2p0-0--x-8-8-x-7-7--|

e----------------------------------|
b----------------------------------|
g----------------------------------|
d--x-2-2--x-8p7-8p7--0--0-0-x-7-7--|
a--x-2-2--x-8p7-8p7--0--0-0-x-7-7--|
d--x-2-2--x-8p7-8p7--0--0-0-x-7-7--|


(guitar 1)
e-----------------------------|
b-----------------------------|
g-----------------------------|
d--x-2-2--x-2-2--x-0-0-x-7-7--| x3
a--x-2-2--x-2-2--x-0-0-x-7-7--|
d--x-2-2--x-2-2--x-0-0-x-7-7--|


****** guitar 2 starts after one riff of guitar 1


(guitar 2, with vibrato and delay)
              x4                                            x8
e----------------|----------------------------|----------------|
b----------------|----------------------------|----------------|
g----------------|-----0h2-2h3p2-0---2--------|----------------|
d--0-2h3p2-2~~---|-0h2-------------2---2-x-2--|--0-2h3p2-2~~---|
a----------------|----------------------------|----------------|
d----------------|----------------------------|----------------|


******


(guitar 1, wah closed slowly moving to open over the 12 times)
e-----------------------------|
b-----------------------------|
g-----------------------------|
d--x-2-2--x-2-2--x-0-0-x-7-7--| x12
a--x-2-2--x-2-2--x-0-0-x-7-7--|
d--x-2-2--x-2-2--x-0-0-x-7-7--|


(wah goes from open to closed over the 8 times)
e---------------|
b---------------|
g---------------|
d--2-0-2-3-2-0--| x8
a--2-0-2-3-2-0--|
d--2-0-2-3-2-0--|


e-----
b-----
g-----
d--2--
a--2--
d--2--
Comments