Tool - Third Eye Chords & Tabs

 

Third Eye Chords & Tabs

Tool Chords & Tabs

Version: 1 Type: Tab 0 ratings
1 star 2 stars 3 stars 4 stars 5 stars
comments

Third Eye Tab

This is a incredibly amazing song from ├ćnima, it is 13:47 long, so I 
am only going to tab a few parts...

Dropped D Tuning

Legend

///=slide
~=let ring
()=harmonic

Intro (after speech)

E------------------------------------------------------------
B------------------------------------------------------------
G------------------------------------------------------------
D---7///7///5///7///7///5///7--------------------------------
A---5///8///3///5///8///3///5--------------------------------
D------------------------------------------------------------

Main Riff

E-------------------------------------------------------------
B-------------------------------------------------------------
G-------------------------------------------------------------
D--0--10--12---0--12--14--0---10--12--------------------------
A-------------------------------------------------------------
D-------------------------------------------------------------

Variation
[ Tab from: http://www.guitartabs.cc/tabs/t/tool/third_eye_tab.html ]
E---------------------------------------------------
B---------------------------------------------------
G---------------------------------------------------
D------12--14------10--12---------------------------
A---------------------------------------------------
D---0----------0------------------------------------

In..Out..In..Out

E--------5-----4-----------------------------------
B--------3-----3-----------------------------------
G--------0-----0-----------------------------------
D--------0-----0-----------------------------------
A--------0-----0-----------------------------------
D--------0-----0-----------------------------------

Prying Open My Third Eye.....

E-------------------------------------------------
B-------------------------------------------------
G----7-7-7-7-7-7-7--------------------------------
D----6-6-6-6-6-6-6--------------------------------
A----5-5-5-5-5-5-5--------------------------------
D----0-0-0-0-0-0-0--------------------------------

Thats all for now

Bitching, declarations of love or any other crap can be sent to:
sean_olsen007@hotmail.com
Comments