Tool - The Patient Chords & Tabs

 

The Patient Chords & Tabs

Tool Chords & Tabs

Version: 3 Type: Tab 0 ratings
1 star 2 stars 3 stars 4 stars 5 stars
comments

The Patient Tab

TOOl - the patient - 7:13
album - lateralus - track 03
released: may 15th, 2001
Transcribed by Richard Pinero
Solidbat@aol.com
6 / 7 / 01

Once again, I feel that this transcription can only be 
              corrected by Adam Jones.
    Unless, of course, I've made a careless error.

I. Palm muted.
E-------------------------------------------------------
B-------------------------------------------------------
G-------------------------------------------------------
D-----0-2----0-2---2---2-----( 20 times )---------------
A----------------3---0----------------------------------
D--3------0---------------------------------------------

II. Palm muted.
E-------------------------------------------------------
B-------------------------------------------------------
G----------------------------( 8 times )----------------
D--------0-----2----------------------------------------
A--0--3-----0-------------------------------------------
D-------------------------------------------------------

Repeat part I. and II. ( II. twice )

III.
E-------------------------------------------------------
B-------------------------------------------------------
G-------------------------------------------------------
D--3--0--5--7-------------------------------------------
A--3--0--5--7-------------------------------------------
D--3--0--5--7-------------------------------------------

IV.
E-------------------------------------------------------
B-------------------------------------------------------
G-----2-5--0-2--2-5--0-2--------------------------------
D--0----------------------------------------------------
A-------------------------------------------------------
D-------------------------------------------------------

V.
E-------------------------------------------------------
B-------------------------------------------------------
G----3-2-0-2-----2-5-0-2-3-0-2--------------------------
D-------------------------------------------------------
A-------------------------------------------------------
D-------------------------------------------------------

Repeat Part II.

VI.
E-------------------------------------------------------
B-------------------------------------------------------
G-------------------------------------------------------
D-------2---0-----0-------------------------------------
A--------------3----------------------------------------
D-------------------------------------------------------

 ...............q.u.i.e.t...p.o.i.n.t..................
[ Tab from: http://www.guitartabs.cc/tabs/t/tool/the_patient_tab_ver_3.html ]
VII.
E-------------------------------------------------------
B-------------------------------------------------------
G-------------------------------------------------------
D--0----3----5--X--7-------5--X--7-----5---7------------
A--0----3----5--X--7-------5--X--7-----5---7------------
D--0----3----5--X--7--X-X--5--X--7--X--5---7------------

VIII.
E-------------------------------------------------------
B-------------------------------------------------------
G-------------------------------------------------------
D--3----0-0----3----0-0---------------------------------
A--3----0-0----3----0-0---------------------------------
D--3----0-0----3----0-0---------------------------------

IX.
E-------------------------------------------------------
B-------------------------------------------------------
G-------------------------------------------------------
D--5----5-5----5--5--5----------------------------------
A--5----5-5----5--5--5----------------------------------
D--5----5-5----5--5--5----------------------------------

X.
E-------------------------------------------------------
B-------------------------------------------------------
G------------0--2-2--0-0--------------------------------
D-------0-2-------------------repeat--------------------
A--0-0--------------------------------------------------
D-------------------------------------------------------

XI.
E-------------------------------------------------------
B------------0----1----0---------0----------------------
G------------------------------------------0------------
D-------2-------------------2---------2---------2-------
A--0----------------------------------------------------
D-------------------------------------------------------
  "I   must keep  re- mind-ing  my   self  of  this."

XII. - Part XI played at a pitch modification

XIII.
E-------------------------------------------------------
B------------0----1-----0---------0---------------------
G----------------------------2---------2----0-----------
D-------2-----------------------------------------------
A--0----------------------------------------------------
D-------------------------------------------------------

XIV.
E--5-5-5--3----------------------------3-3-3------------
B--5-5-5--3----3-3-3-------6-6-6--3----3-3-3------------
G--2-2-2--0----2-2-2-------5-5-5--2----0-0-0------------
D--------------0-0-0-------3-3-3--0---------------------
A-------------------------------------------------------
D-------------------------------------------------------

XV.
E-------------------------------------------------------
B-------------------------------------------------------
G-------------------------------------------------------
D--3----------------------------------------------------
A--3-------w/--Delay------------------------------------
D--3----------------------------------------------------

Song ends with repetition of Part I.

Richard Pinero - Solidbat@aol.com /
................ volitivepugilist@aol.com
Comments