Tool - The Grudge Chords & Tabs

 

The Grudge Chords & Tabs

Tool Chords & Tabs

Version: 1 Type: Tab 0 ratings
1 star 2 stars 3 stars 4 stars 5 stars
comments

The Grudge Tab

   
drop d tuning

KEY
h = hammer on
p = pull off
/ = slide up
\ = slide down
x = mute

Listen to the CD for the timing.


intro/verse (palm muted)
e--------
b--------
g--------
d--------
a--------
d-0h2p0-0


intro (pt. 2) (palm muted)
e----------------
b----------------
g----------------
d-------0--------
a----------------
d-0h2p0---0h2p0-3


after the first verse, strum an open D chord on the 
bottom three strings at a steady rhythm


second verse 
(palm muted)
e-----------------------
b-----------------------
g-----------------------
d-0--0--0--0-0--0-3-3--3
a-0--0--0--0-0--0-3-3--3
d-0--0--0--0-0--0-3-3--3


e-----------------------------
b-----------------------------
g-----------------------------
d-0-0--0--0--0-0----0-0----0-0
a-0-0--0--0--0-0----0-0----0-0
d-0-0--0--0--0-0--0-0-0--0-0-0


e--------------------
b--------------------
g--------------------
d-------7--------7--5  on second repeat, slide down to open d note
a-5h7p5----5h7p5-----
d--------------------

[ Tab from: http://www.guitartabs.cc/tabs/t/tool/the_grudge_tab.html ]
"clutch it like a cornerstone, etc." (second time)
(palm mute open d notes)
e----------------------
b----------------------
g-7-----10-----5---10-9
d-7-----10-----5---10-9
a-5-----8------3---8--7
d---0-0----0-0---0-----
end that section by holding out the C5 chord, then
e-----------------------------
b-----------------------------
g-----------------------------
d-0-0--0--0--0-0----0-0----0-0
a-0-0--0--0--0-0----0-0----0-0
d-0-0--0--0--0-0--0-0-0--0-0-0
                 ending on first part
e---------------|-------------
b---------------|-------------
g---------------|-------------
d---------------|---0-0----0-0
a-3p0---5p0-----|---0-0----0-0
d-----0-----0-0-|-0-0-0--0-0-0
endings on second part
e------------|-----------|-------------------
b------------|-----------|-------------------
g---------5-5|-----------|--------3-3-x-x----
d-x--x-x--5-5|x--x-x--5-5|x--x-x--3-3-x-x-3-3
a-x--x-x--3-3|x--x-x--5-5|x--x-x--1-1-x-x-3-3
d-x--x-x-----|x--x-x--5-5|x--x-x----------3-3
next part is again unclear.
e----------------------------------
b----------------------------------
g----------------------------------
d-0--0--0--0-0--3-3--3/5-----------  repeat the two sections 
a-0--0--0--0-0--3-3--3/5-3p0---5p0-  then play above this one,
d-0--0--0--0-0--3-3--3/5-----0----0


e--
b-3
g-2
d-0   repeat alot but with different effects
a-0
d-0


e---------------------------
b---------------------------
g---------------------------
d---------------------------
a---/3-------------/3-/5----
d-0-----/5--3/5--0-------3/5


again, play an open D on the bottom three strings, 
then go back to the intro parts 


during big scream:
e-----------------
b-------3---------
g-------2---------
d-0h2p0-0--0h2p0-3
a-0h2p0----0h2p0-3
d-0h2p0----0h2p0-3


next part ("let go") is palm muted open D on bottom three strings.  listen to CD 
to get the emphasis right.


outro:
e------------------------------------------------
b------------------------------------------------
g-------7---------5-10-------7--------------5----
d-0--0--7--0-1-0--5-10--0--0-7-0-1-0-0-1-0--5---3
a-0--0--5--0-1-0--3-8---0--0-5-0-1-0-0-1-0--3---3
d-0--0-----0-1-0--------0--0---0-1-0-0-1-0------3


e--------
b--------
g--------
d-0h2p0-0
a-0h2p0-0
d-0h2p0-0


last part just hit an open D on low three strings in time with the drums.

Tabbed by drew j
Comments