Tool - Stinkfist Chords & Tabs

 

Stinkfist Chords & Tabs

Tool Chords & Tabs

Version: 8 Type: Tab 0 ratings
1 star 2 stars 3 stars 4 stars 5 stars
comments

Stinkfist Tab

   
#----------------------------------PLEASE NOTE---------------------------------#
#This file is the author's own work and represents their interpretation of the #
#song. You may only use this file for private study, scholarship, or research. #
#------------------------------------------------------------------------------##

                                    STINFIST
                               As recorded by Tool
                          (From the 1996 Album AENIMA)

Words and Music by Tool
Arranged by Tool


          E5                   G/D                  D5                   C5
      2 2 2 x x x          x x 2 2 2 x          0 0 0 x x x        10 10 10 x x x

          F5                   A5                   G5                   C6
      3 3 3 x x x          x 0 2 2 x x          5 5 5 x x x          5 7 x x x x

         E5VII            E5II(type 2)              F#5                  D6
      x 7 9 9 x x          x x 2 4 5 x          x x 4 6 7 x          0 2 0 x x x

         Csus2                Dsus2                Bsus2                Asus2
    10 10 12 x x x       12 12 14 x x x        9 9 11 x x x          7 7 9 x x x

        A7sus2            E5II(type 3)          G5(type 2)              A5VII
      7 7 9 0 0 0          2 2 2 4 5 x          5 5 5 7 8 x         7 7 7 9 10 x

      F#5(type 2)              Bm                  D5/A
      4 4 4 6 7 x         x 14 12 x x x        x 12 12 x x x

Gtr I (D A D G B E) - 'Gibson Les Paul'
Gtr II (D A D G B E) - 'Gibson Les Paul'

 Intro
  Moderately Slow Rock Q=87
  N.C.
 4/4
  Gtr I
             T           T         T     T   T   T   T
  S   +S  S  S  +S  S S  S   +S    E  S  S   S   S   S
|-------------------------------------------------------|
|-------------------------------------------------------|
|---------------------------------------------------[2]-|
|-------------------------------------------------------|
|-------------------------------------------------------|
|-1b2-(1)-2-[2]-(2)-2-2-[2]-([2])-[2]-2-[2]-[2]-[2]-----|


           T         T       T     T   T   T   T
  S   +E   S  +S  S  S  S S  E  S  S   S   S   S
|--------------------------------------------------|
|--------------------------------------------------|
|---------------------------------------------[2]--|
|--------------------------------------------------|
|--------------------------------------------------|
|-1b2-(1)-[2]-(2)-2-[2]-2-2-[2]-2-[2]-[2]-[2]------|


             T         T   T        T    T   T   T   T
  S   +S  S  S   +E    S   S   +S   E S  S   S   S   S
|-------------------------------------------------------|
|-------------------------------------------------------|
|---------------------------------------------------[2]-|
|-------------------------------------------------------|
|-------------------------------------------------------|
|-1b2-(1)-2-[2]-([2])-[2]-[2]-([2])-2-2-[2]-[2]-[2]-----|


           T     T   T               T     T
  S   +E   S  E  S   S   +S    S  E  E  S  S
|----------------------------------------------|
|----------------------------------------------|
|----------------------------------------------|
|----------------------------------------------|
|----------------------------------------------|
|-1b2-(1)-[2]-2-[2]-[2]-([2])-[2]-2-[2]-2-[2]--|


           T             T   T   T   T   T   T
                         |---3---|   |---3---|
  S   +E   S  +S  S  E   E   E   E   E   E   E     +W
|-----------------------------------------------|-------------------------||
|-----------------------------------------------|-------------------------||
|-----------------------[2]-[2]-[2]-[2]-[2]-[2]-|-([2])-------------------||
|-----------------------------------------------|-------------------------||
|-----------------------------------------------|-------------------------||
|-1b2-(1)-[2]-(2)-2-[2]-------------------------|-------------------------||
|
| Gtr II
|                                                   <
| W                                                 H      +E   E     Q
|-----------------------------------------------|-------------------------||
|-----------------------------------------------|-------------------------||
|-----------------------------------------------|-------------------------||
|-----------------------------------------------|-------------------------||
|-----------------------------------------------|---5------(5)-(5)b6r(5)--||
|-----------------------------------------------|-------------------------||


    N.C.
    Gtr II
                           ~~
    Q.   E E.   S  +E  E   E. S +E  E E.  S +E  E
||-----------------------|------------------------|
||o----------------------|------------------------|
||-----------------------|------------------------|
||-----------------------|------------------------|
||o------5-------------5-|----------5-----------5-|
||--2------2b3r(2)-(2)---|-2--2-(2)---2b3r2-(2)---|


  ~~                                             PM
  Q.   E E.   S  +E  E   E.   S  +E  E E.  S +E  E
|----------------------|---------------------------||
|----------------------|---------------------------||
|----------------------|---------------------------||
|----------------------|---------------------------||
|------5-------------5-|-------------5-----------5-||
|-2------2b3r(2)-(2)---|-2b3r(2)-(2)---2b3r2-(2)---||


 Verse
  PM----------------------------------------------|
  S E S +E  E S E S +E  E   S E S +E  E S E S +E  E
|-------------------------|-------------------------|
|-------------------------|-------------------------|
|-------------------------|-------------------------|
|-------------------------|-------------------------|
|---5-------5---5-------5-|---5-------5---5-------5-|
|-2---2-(2)---2---2-(2)---|-2---2-(2)---2---2-(2)---|


  PM----------------------------------------------|
  S E S +E  E S E S +E  E   S E S +E  E S E S +E  E
|-------------------------|-------------------------|
|-------------------------|-------------------------|
|-------------------------|-------------------------|
|-------------------------|-------------------------|
|---5-------5---5-------5-|---5-------5---5-------5-|
|-2---2-(2)---2---2-(2)---|-2---2-(2)---2---2-(2)---|


  PM---------------------------------------|
  S E. +E  E S E S E E   S E S E E S E S E E
|----------------------|---------------------|
|----------------------|---------------------|
|----------------------|---------------------|
|----------------------|---------------------|
|----------5---------5-|---------5---------5-|
|-2-2--(2)---2-2-2-2---|-2-2-2-2---2-2-2-2---|


  PM------------------------------------------|
  S E S E E S E S E E   S E S +E  E S E S +E  E
|---------------------|-------------------------|
|---------------------|-----------------------0-|
|---------------------|-----------------------0-|
|---------------------|-----------------------0-|
|---------5---------5-|---5-------5---5---------|
|-2-2-2-2---2-2-2-2---|-2---2-(2)---2---2-(2)---|


 Pre-Chorus
  E5   G/E5   G/D E5   D5E5   G/D
  Q.   E Q.   E   Q.   E Q.   E
|---------------|---------------|
|------0------0-|-------------0-|
|------0------0-|-------------0-|
|-2----0-2----0-|-2----0-2----0-|
|-2------2------|-2----0-2------|
|-2------2------|-2----0-2------|


  E5   G/E5   D5  E5   G/E5     D5
  Q.   E Q.   E   Q.   E Q  +S  S S S
|---------------|---------------------||
|------0--------|------0--------------||
|------0--------|------0--------------||
|-2----0-2----0-|-2----0-2--(2)-0-0-0-||
|-2------2----0-|-2------2--(2)-0-0-0-||
|-2------2----0-|-2------2--(2)-0-0-0-||


 Chorus
  $
  E5       C5          D5                E5F5
 6/4
  E. S +E   E  +S   E. E S S +S  S E S S S S
|--------------------------------------------|
|--------------------------------------------|
|--------------------------------------------|
|-2--2-(2)S10-(10)-10--0-0-0-(0)-0-0-x-x-2s3-|
|-2--2-(2)S10-(10)-10--0-0-0-(0)-0-0-x-x-2s3-|
|-2--2-(2)S10-(10)-10--0-0-0-(0)-0-0-x-x-2s3-|


  E5       C5          D5           E5F5
  E. S +E   E  +S   E. E. S E E S S S S
|---------------------------------------|
|---------------------------------------|
|---------------------------------------|
|-2--2-(2)S10-(10)-10--0--0-0-0-x-x-2s3-|
|-2--2-(2)S10-(10)-10--0--0-0-0-x-x-2s3-|
|-2--2-(2)S10-(10)-10--0--0-0-0-x-x-2s3-|


                                                         To Coda
  E5       C5          D5                E5F5  E5       C5
                                              3/4
  E. S +E   E  +S   E. E S S +S  S E S S S S   E. S S S  E  +S   E.
|--------------------------------------------|----------------------|
|--------------------------------------------|----------------------|
|--------------------------------------------|----------------------|
|-2--2-(2)S10-(10)-10--0-0-0-(0)-0-0-x-x-2s3-|-2--2-x-x-10-(10)-10--|
|-2--2-(2)S10-(10)-10--0-0-0-(0)-0-0-x-x-2s3-|-2--2-x-x-10-(10)-10--|
|-2--2-(2)S10-(10)-10--0-0-0-(0)-0-0-x-x-2s3-|-2--2-x-x-10-(10)-10--|


  D5 N.C.               A5   N.C.        G5 C6 G5 N.C.
 4/4
  Q  H    +E      E     Q.   E +Q.   E   Q  Q  E. S E    E
|--------------------||----------------|-------------------|
|-------------------o||----------------|-------------------|
|--------------------||-2--------------|-------------------|
|-0------------------||-2--------------|-------------------|
|-0--5----(5)b5.5r5-o||-0--------------|-5--7--5--5-5b6==5-|
|-0------------------||------3-(3)---3-|-5--5--5-----------|


  +Q   +Q   H      +H.      +Q      W           +W           Wx3
|----------------|---------------|------------|------------|--------|
|----------------|---------------|------------|------------|--------|
|----------------|---------------|------------|------------|--------|
|----------------|---------------|------------|------------|--------|
|-(5)--(5)r=5----|-(5)------(5)r=|=(5)--------|-(5)--------|--------|
|----------------|---------------|------------|------------|--------|

[ Tab from: http://www.guitartabs.cc/tabs/t/tool/stinkfist_tab_ver_8.html ]
  TP
  W            S S S S S S S S S S S S S S S S
|----------||----0---0---0---0---0---0---0---0-|
|-x--------||o-3---3---3---3---3---3---3---3---|
|-x--------||----------------------------------|
|----------||----------------------------------|
|----------||o---------------------------------|
|----------||----------------------------------|


  S S S S S S S S S S S S S S S S
|---0---0---0---0---0---0---0---0---|
|-3---3---3---3---3---3---3---3-----|
|-----------------------------------|
|-----------------------------------|
|-----------------------------------|
|-----------------------------------|


  1.                                           2.
  E5VIIN.C.
  E  E Q  H      S E S E S S S S S S E S S     S S S S +E  E  H
|--------------|----------------------------||-0-0-0-------0--0-----|
|--------------|-x-x-x-x-x-x-x-x-x-x-x-x-x-o||-5-5-5-6-(6)-6-(6)----|
|-9\-----------|-x-x-x-x-x-x-x-x-x-x-x-x-x--||----------------------|
|-9\-----------|----------------------------||----------------------|
|-7\-----------|---------------------------o||----------------------|
|--------------|----------------------------||----------------------|


  S E S E S S S S S S E S S   S S S S S S S S S S S S S S S S
|---0---0---0-0---0---0-0-0-|---0---0---0---0---0---0---0---0-|
|-6---6---6-----6---6-6-6-6-|-3---3---3---3---3---3---3---3---|
|---------------------------|---------------------------------|
|---------------------------|---------------------------------|
|---------------------------|---------------------------------|
|---------------------------|---------------------------------|


  S S S S S S S S S S S S S S S S
|---0---0---0---0---0---0---0---0-|
|-3---3---3---3---3---3---3---3---|
|---------------------------------|
|---------------------------------|
|---------------------------------|
|---------------------------------|


  PM------------------------------------------|
  S S S S S S S T T S S S S S S S T T   S S S S S S S S S S S S S S E
|-------------------------------------|--------------------------------|
|-------------------------------------|--------------------------------|
|-------------------------------------|--------------------------------|
|-------------------------------------|--------------------------------|
|-------------------------------------|-----------------------------0--|
|-2-2-2-2-2-2-2-0-0-2-2-2-2-2-2-2-0-0-|-2-2-2-2-2-2-2-2-2-2-2-2-2-2-0--|


    E5II(tyF#E5II(typD52)  E5II(tyF#E5II(type 2)
    Gtr I
    W                      W
||-----------------------|----------------------|
||o----------------------|----------------------|
||-----------------------|----------------------|
||-----------------------|----------------------|
||o----------------------|----------------------|
||-----------------------|----------------------|
|
|   Gtr II
|   E. S E E S E S S S E   E. S E E S E S S S E
||-----------------------|----------------------|
||o-5--5-5-7-5-5-5-5-----|-5--5-5-7-5-5-5-5-----|
||--4--4-4-6-4-4-4-4-----|-4--4-4-6-4-4-4-4-----|
||--2--2-2-4-2-2-2-2-0-0-|-2--2-2-4-2-2-2-2-0-0-|
||o------------------0-0-|------------------0-0-|
||-------------------0-0-|------------------0-0-|


  1.
  D6              D5 D6              D5
   S   E  S  S  S  E  S   E  S  S  S  E
|---------------------------------------|
|---------------------------------------|
|---------------------------------------|
|-12--12-12-12-12-12-12--12-12-12-12-12-|
|-14--14-14-14-14-12-14--14-14-14-14-12-|
|---------------------------------------|
|
|  Q.              E  Q.              E
|---------------------------------------|
|---------------------------------------|
|---------------------------------------|
|--0---------------0--0---------------0-|
|--2---------------0--2---------------0-|
|--0---------------0--0---------------0-|


                                   2.
  D6              D5 D6      D5    D6              D5 D6              D5
   S   E  S  S  S  E  Q   Q         S   E  S  S  S  E  S   E  S  S  S  E
|-------------------------------||---------------------------------------|
|------------------------------o||---------------------------------------|
|-------------------------------||---------------------------------------|
|-12--12-12-12-12-12-12\--4/----||-12--12-12-12-12-12-12--12-12-12-12-12-|
|-14--14-14-14-14-12-14\-------o||-14--14-14-14-14-12-14--14-14-14-14-12-|
|-------------------------------||---------------------------------------|
|
|  Q.              E  Q.     E      Q.              E  Q.              E
|-------------------------------||---------------------------------------|
|------------------------------o||---------------------------------------|
|-------------------------------||---------------------------------------|
|--0---------------0--0------0--||--0---------------0--0---------------0-|
|--2---------------0--2------0-o||--2---------------0--2---------------0-|
|--0---------------0--0------0--||--0---------------0--0---------------0-|


  D6              D5 D6              D5
   S   E  S  S  S  E  S   E  S  S  S  E
|----------------------------------------|
|----------------------------------------|
|----------------------------------------|
|-12--12-12-12-12-12-12--12-12-12-12-12--|
|-14--14-14-14-14-12-14--14-14-14-14-12--|
|----------------------------------------|
|
|  Q.              E  Q.              E
|----------------------------------------|
|----------------------------------------|
|----------------------------------------|
|--0---------------0--0---------------0--|
|--2---------------0--2---------------0--|
|--0---------------0--0---------------0--|


  Gtr II
   Q.    E  +S   S  E  E S S   E. S +E  E +S  E. E S S
|----------------------------|--------------------------|
|----------------------------|--------------------------|
|----------------------------|--------------------------|
|-12----14-(14)-14-14-11-0-0-|-2--2-(2)-2-(2)-2--2-2-2/-|
|-10----12-(12)-12-12--9-0-0-|-2--2-(2)-2-(2)-2--2-2-2/-|
|-10----12-(12)-12-12--9-0-0-|-2--2-(2)-2-(2)-2--2-2-2/-|


  Csus2 Dsus2         BsuD5    E5
   Q.    E  +S   S  E  E S S   E. S +E  E +S  E. E S S
|----------------------------|--------------------------|
|----------------------------|--------------------------|
|----------------------------|--------------------------|
|-12----14-(14)-14-14-11-0-0-|-2--2-(2)-2-(2)-2--2-2-2/-|
|-10----12-(12)-12-12--9-0-0-|-2--2-(2)-2-(2)-2--2-2-2/-|
|-10----12-(12)-12-12--9-0-0-|-2--2-(2)-2-(2)-2--2-2-2/-|


  Csus2     Dsus2          BsuD5    Asus2                  Csus2
                                   6/4
                                    >
   E.  S  S  S  E  +S   E.  E S S   Q  E E E E E E E E E S  S
|---------------------------------|---------------------------|
|---------------------------------|---------------------------|
|---------------------------------|---------------------------|
|-12--12-12s14-14-(14)-14--11-0-0-|-9--9-9-9-9-9-9-9-9-9-9s12-|
|-10--10-10s12-12-(12)-12---9-0-0-|-7--7-7-7-7-7-7-7-7-7-7s10-|
|-10--10-10s12-12-(12)-12---9-0-0-|-7--7-7-7-7-7-7-7-7-7-7s10-|


            Dsus2            Bsus2      A7sus2               Csus2
 4/4                                   6/4
   E.  S  S  S  E  +S   S  E  E  S  S   Q  E. S E E Q  E E E  E
|-------------------------------------|-0--0--0-----0------0----|
|-------------------------------------|-0--0--0-----0------0----|
|-------------------------------------|-0--0--0-----0------0----|
|-12--12-12s14-14-(14)-14-14-11-11-11-|-9--9--9-9-9-9--9-9-9s12-|
|-10--10-10s12-12-(12)-12-12--9--9--9-|-7--7--7-7-7-7--7-7-7s10-|
|-10--10-10s12-12-(12)-12-12--9--9--9-|-7--7--7-7-7-7--7-7-7s10-|


            Dsus2       BsuD5     E5II(type 3)
 4/4                             6/4
                <
   E.  S  S  S  E  +Q    E S S    Q  E S S Q  E S S Q  S S S S
|------------------------------||------------------------------|
|------------------------------||-5--------5--------5----------|
|------------------------------||-4--------4--------4----------|
|-12--12-12h14-14-(14)--11-0-0-||-2--------2--------2----------|
|-10--10-10-12-12-(12)---9-0-0-||-2--------2--------2----------|
|-10--10-10-12-12-(12)---9-0-0-||-2--x-x-x-2--x-x-x-2--x-x-x-x-|


  G5(type 2)A5VII               F#5(type 2E5II(type 2)
 4/4                                     6/4
  E. S +S    S  E  +S   S  S  S S S S S   Q  S S S S Q  E S S Q  S S S S
|---------------------------------------|--------------------------------|
|-8--8-(8)s=10-10-(10)-10-10-10-7-7-x-x-|-5----------5--------5----------|
|-7--7-(7)/--9--9--(9)--9--9--9-6-6-x-x-|-4----------4--------4----------|
|-5--5-(5)/--7--7--(7)--7--7--7-4-4-x-x-|-2----------2--------2----------|
|-5--5-(5)/--7--7--(7)--7--7--7-4-4-x-x-|-2----------2--------2----------|
|-5--5-(5)/--7--7--(7)--7--7--7-4-4-x-x-|-2--x-x-x-x-2--x-x-x-2--x-x-x-x-|


                    D.S. al Coda     &
  G5(type 2)A5VII             F#D5typD52N.C.
 4/4
  E. S +S    S  E  +S   S  E  E E    Q  H.
|---------------------------------||----------|
|-8--8-(8)s=10-10-(10)-10-10\-7---||----------|
|-7--7-(7)/--9--9--(9)--9--9\-6---||----------|
|-5--5-(5)/--7--7--(7)--7--7\-4-0-||-0--------|
|-5--5-(5)/--7--7--(7)--7--7\-4-0-||-0--5-----|
|-5--5-(5)/--7--7--(7)--7--7\-4-0-||-0--------|


  +W           +W           +W
|------------|------------|--------|
|------------|------------|--------|
|------------|------------|--------|
|------------|------------|--------|
|-(5)--------|-(5)--------|-(5)----|
|------------|------------|--------|


  +W           +W           +W
|------------|------------|--------*|
|------------|------------|--------*|
|------------|------------|--------*|
|------------|------------|--------*|
|-(5)--------|-(5)--------|-(5)----*|
|------------|------------|--------*|


Duration Legend
---------------
W - whole; H - half; Q - quarter; E - 8th; S - 16th; T - 32nd; X - 64th; a - acciaccatura
+ - note tied to previous; . - note dotted; .. - note double dotted
Uncapitalized letters represent notes that are staccato (1/2 duration)
Irregular groupings are notated above the duration line
Duration letters will always appear directly above the note/fret number it represents the
duration for.  Duration letters with no fret number below them represent rests.  Multi-
bar rests are notated in the form Wxn, where n is the number of bars to rest for.  Low
melody durations appear below the staff

Tablature Legend
----------------
 h   - hammer-on
 p   - pull-off
 b   - bend
 pb  - pre-bend
 r   - bend release (if no number after the r, then release immediately)
 /\  - slide into or out of (from/to "nowhere")
 s   - legato slide
 S   - shift slide
  - natural harmonic
[n]  - artificial harmonic
n(n) - tapped harmonic
 ~   - vibrato
 tr  - trill
 T   - tap
 TP  - trem. picking
 PM  - palm muting
\n/  - tremolo bar dip; n = amount to dip
 \n  - tremolo bar down
 n/  - tremolo bar up
/n\  - tremolo bar inverted dip
 =   - hold bend; also acts as connecting device for hammers/pulls
 <>  - volume swell (louder/softer)
 x   - on rhythm slash represents muted slash
 o   - on rhythm slash represents single note slash

Misc Legend
-----------
 |  - bar
||  - double bar
||o - repeat start
o|| - repeat end
*|  - double bar (ending)
 :  - bar (freetime)
 $  - Segno
 &  - Coda
Tempo markers -  = BPM(8/16=s8/s16), where s8 = swing 8ths, s16 = swing 16ths
Comments