Tool - Stinkfist Chords & Tabs

 

Stinkfist Chords & Tabs

Tool Chords & Tabs

Version: 5 Type: Tab 0 ratings
1 star 2 stars 3 stars 4 stars 5 stars
comments

Stinkfist Tab

Tool Stinkfist  100% correct 
evolutionhillx@yahoo.com


|-------------- Chorus
|-----------0--
|-----------0--
|--2-2-2-2--0-- 
|--2-2-2-2-----
|--2-2-2-2-----

|------------------------ Riff
|------------------------
|------------------------
|------------------------
|---------5----------5---
|--2--2-22----2--2-22----


|-------------- Chorus
|-----------0--
|-----------0--
|--2-2-2-2--0--
|--2-2-2-2----- 
|--2-2-2-2-----


|---------------------------- end chorus
|----------------3-3---------
|--------5-5-X---2-2---------
|--2-2-X-5-5-X-0-0-0-0-------
|--2-2-X-3-3-X-0-0-0-0-XX-XX-
|--2-2 X-----X-0-----0-XX-XX-


|---------------------------- before solo
|--------------3^-hold note--
|--------5-5-X-2-------------
|--2-2-X-5-5-X-0-------------
|--2-2-X-3-3-X-0------------- 
|--2-2-X-------0-------------

|-----------------------------------------------------------
|-----------------------------------------------------------
|----9--9--9--9--9--9--9--9--9--9--9--9--9--9--9--9---------
|--12-12-12-12-12-12-12-12-12-12-12-12-12-12-12-12-12-2-----
|-----------------------------------------------------2----- 
|-----------------------------------------------------2----- 

|-----------------------------0-0-0-0-0-0-0-0-0-0-0-0-0-0---
|-----------------------------5-6-6p5-6p5-6p5-6p5-6p5h6p5---
|----9--9--9--9--9--9--9--9---------------------------------
|--12-12-12-12-12-12-12-12-12-------------------------------
|-----------------------------------------------------------
|----------------------------------------------------------- 
[ Tab from: http://www.guitartabs.cc/tabs/t/tool/stinkfist_tab_ver_5.html ]
|-----------------------------------------------------------
|-----------------------------------------------------------
|----8--8--8--8--8--8--8--8--8--8--8--8--8--8--8--8---------
|--12-12-12-12-12-12-12-12-12-12-12-12-12-12-12-12-12-22222-
|-----------------------------------------------------22222- 
|-----------------------------------------------------22222--
						     palm mute



|---------------------------------------------- 
|---------------------------------------------- 
|--9-9-9-9-11-9-9-9-9----9-9-9-9-11-9-9-9-9----
|--9-9-9-9-11-9-9-9-9-0--9-9-9-9-11-9-9-9-9-0--
|--7-7-7-7-9--7-7-7-7-0--7-7-7-7-9--7-7-7-7-0--
|---------------------0---------------------0--

|----------------------------------------------
|----------------------------------------------
|----------------------------------------------
|--00-00-0--00-00-0-00-00-0-0------------------
|--22-22-2--22-22-2-22-22-2-0------------------
|--00-00-0--00-00-0-00-00-0-0------------------

|-------------------------|---------------------
|-------------------------|---------------------
|-------------------------|--------------------- 
|--12-12/14-14-0-2-2-2-2--|--12-12/14-14-9-7---- 
|--10-10/12-12-0-2-2-2-2--|--10-10/12-12-7-5---- 
|--10-10/12-12-0-2-2-2-2--|--10-10/12-12-7-5----

|------------------------------ 
|--5----5----5----8-8-10-10-7-- 
|--4----4----4----7-7-9--9--6--
|--2-XX-2-XX-2-XX-5-5-7--7--4--
|--2-XX-2-XX-2-XX-5-5-7--7--4-- 
|--2-XX-2-XX-2-XX-5-5-7--7--4-- 

|-------------------------
|----------------3-3------
|--------5--5----2-2------ 
|--2--2--5--5--0-0-0-0----
|--2--2--3--3--0-0-0-0-XX-
|--2--2--------0-----0-XX-

|------------------------ 
|------------------------ 
|------------------------ 
|------------------------
|---------5----------5--- 
|--0--2-22----0--2-22----
Comments