Tool - Stinkfist Chords & Tabs

 

Stinkfist Chords & Tabs

Tool Chords & Tabs

Version: 3 Type: Tab 0 ratings
1 star 2 stars 3 stars 4 stars 5 stars
comments

Stinkfist Tab

   
#----------------------------------PLEASE NOTE--------------------------------#
#This file is the author's own work and represents their interpretation of the#
#song. You may only use this file for private study, scholarship, or research.#
#-----------------------------------------------------------------------------#
#-- File created with Instab - http://www.pconline.com/~smcarey/instab.html --#
#-----------------------------------------------------------------------------#

Author/Artist: Tool
Title: Stinkfist
Transcribed by: Will
Email: QulKoRnkiD69@aol.com

Hey this is Stinkfist from Tool, its an awesome song!
     And I'm 98% sure this is right!.. but if u gots any questions or comments
             Just Email me at QulKoRnKiD69@aol.com!! 
                                This song is in Drop D Tuning {D-A-D-G-B-e} with distortion, and Bass Backup.

 distortion.

---------------------------------|--------------------------------------------
---------------------------------|----------------------------24*-------------
---------------------------------|----22-22-22-22^22-22-22--------------------
------21x21x21x21x21x22----------|--------------------------------------------
---------------------------------|--------------------------------------------
-21b----------------------21b----|-21b----------------------------------------
 [Intro](He Uses a phaser I think)X5>  {Fades into^Trem. Picking} *FEEDBACK   

--------------------|------------------------|------------------------------|-
--------------------|------------------------|-------------0-------------0--|-
--------------------|------------------------|-------------0-------------0--|-
--------------------|------------------------|---2-2--2-2--0----2-2--2-2-0--|-
----2-2--2-2--5-----|-----------5-----------5|---2-2--2-2-------2-2--2-2----|-
----2-2--2-2--------|--2-2--2-2----2-2--2-2--|---2-2--2-2-------2-2--2-2----|-
 {00:25} [Pre-verse]X4 {00:36} [verse]  X7      {00:58} [Pre-Chorus]    X5    

-------------------------|--------------------|-----------------------------|-
---------------3-3-3-----|--------------------|-----------------------------|-
---------5-5---2-2-2-----|--------------------|-----------------------------|-
---2-2---5-5---0-0-0-----|--------------------|-----------------------------|-
---2-2---3-3---0-0-0-----|--2-2--2-2--5-------|----------5----------5-------|-
---2-2---------------xx--|--2-2--2-2----------|-2-2--2-2---2-2--2-2---------|-
  {1:09} [Chorus]X4       X8 {1:26} [Pre-Verse]    {1:37} [verse]  X7         

------------------------------|--------------------|-----------------------|--
--------------0-------------0-|--------------3-3---|-------------3-3/------|--
--------------0-------------0-|--------5-5---2-2---|-------5-5---2-2/------|--
----2-2--2-2--0----2-2--2-2-0-|--2-2---5-5---0-0---|-2-2---5-5---0-0/------|--
----2-2--2-2-------2-2--2-2---|--2-2---3-3---0-0---|-2-2---3-3---0-0/------|--
----2-2--2-2-------2-2--2-2---|--2-2-------------xx|-2-2-------------------|--
  {2:00} [pre-chorus]  X5         {2:11} [Chorus]X3 {2:23}-4th-  /=Sustain..  
[ Tab from: http://www.guitartabs.cc/tabs/t/tool/stinkfist_tab_ver_3.html ]
------------------|------------------------------|----------------------------
------------------|------------------------------|----------------------------
------------------|------------------------------|----------------------------
-7-3--3-3//5-5--2-|-0xxxx--//0xxxxxxxxxxxx////---|----------------------------
-7-3--3-3//7-7--2-|-0xxxx--//0xxxxxxxxxxxx////---|----------------------------
-7-3--3-3//5-5--2-|-0xxxx--//0xxxxxxxxxxxx////---|----------------------------
 {2:28} [Interlude] {2:41}& {2:53}~rub a Quarter for Scratchy effect~\^BASS^  

-----------------------------------------|--------------------------|-------|-
-----------------------------------------|--------------------------|-------|-
-----------------------------------------|--------------------------|-------|-
----------------------------------------0|--------------------------|-------|-
----0---0---0---0---0---0---0---0---0---0|---0---0---0---0---0---0--|--0--0-|-
--3---3---3---3---3---3---3---3---3---3-0|-3---3---3---3---3---3----|--5--6-|-
  [SoLo] {2:56}                            {3:07} [Solo Continued.........    

------------------------------------------------------------------------------
------------------------------------------------------------------------------
------------------------------------------------------------------------------
------------------------------------------------------------------------------
-0-0-0-0-0-0-0-0-0-0-0------0---0---0---0---0---0---0---0---0---0---0---0-----
-6-5-6-5-6-5-6-5-6-5-6----3---3---3---3---3---3---3---3---3---3---3---3-------
  [   S     ^  TREM. ^      O                  L              O     {3:24} ]  

--------------------------------|----------------|-------------|-----------|--
--------------------------------|-----------0----|-------------|-----------|--
---9-9--9-9---11---9-9--9-9-----|-----------0----|-------------|-----------|--
---9-9--9-9---11---9-9--9-9---0-|-0-0--0-0--0----|-------------|-----------|--
---7-7--7-7---9----7-7--7-7---0-|-2-2--2-2-------|-------------|-----------|--
------------------------------0-|-0-0--0-0-------|-------------|-----------|--
  {3:29} [Bridge 1]    X2             [Bridge2]X2 ^[Bridge1]^X2 ^[Bridge2]^   

----------------------------------|---------------------------|---------------
----------------------------------|---------------------------|---------------
----------------------------------|---------------------------|---------------
--12-12//14-14--0--2-2-2-2--------|-12-12//14-14--0--2-2-2-2--|12-12//-0-2----
--10-10//12-12--0--2-2-2-2--------|-10-10//12-12--0--2-2-2-2--|10-12//-0-2----
--10-10//12-12--0--2-2-2-2--------|-10-10//12-12--0--2-2-2-2--|10-12//-0-2----
   {3:51} [Bridge 3] (Mild Dist.)X3 {4:09} (Slight Distortion)        ^Dist.  

--x-----x-----x--------------------|--------------------|---------------------
--5-----5-----5-----8-8-10-10-7-7--|-------------3-3-3--|---------------------
--4-----4-----4-----7-7-9--9--6-6--|-------5-5---2-2-2--|---------------------
--2-x-x-2-x-x-2-x-x-5-5-7--7--4-4--|-2-2---5-5---0-0-0--|---------------------
--2-x-x-2-x-x-2-x-x-5-5-7--7--4-4--|-2-2---3-3---0-0-0--|---------------------
--2-x-x-2-x-x-2-x-x-5-5-7--7--4-4--|-2-2----------------|---------------------
  {4:18} [Bridge 4] X2                {4:32} [Chorus] X4   ^ ( BASS OUTRO ) ^ 

Comments