Tool - Stinkfist Chords & Tabs

 

Stinkfist Chords & Tabs

Tool Chords & Tabs

Version: 2 Type: Tab 1 rating
1 star 2 stars 3 stars 4 stars 5 stars
comments

Stinkfist Tab

Tool 
Stinkfist
tabbed by: Darren Bencosky

Yet again I've seen numerous tabs for this song that were wrong,
some we're close and others were totally off, so I've taken time
to tab this the way me and my band play it so here it goes...

Now I've been told that Adam Jones uses a vibrator to get that feedback,
you can do it just as well with some distortion, sitting close to the amp
and scraping the strings with a quarter...

Drop D-tuning like usual...

Intro
----------------------------------------------------
----------------------------------------------------
---------7------------7------------7---2------------
-2-2-2---7---2-2--2---7---2-2--2---7---2--2--2------
-2-2-2---5---2-2--2---5---2-2--2---5---2--2--2------
-2-2-2-------2-2--2-------2-2--2-------2--2--2------
play that whole measure 2X

then for the verses
---------------------------------------
--------2-------------2----------------
--------2-------------2----------------
-2-2-2--2--2--2--2-2--2----------------
-2-2-2-----2--2--2-2-------------------
-2-2-2-----2--2--2-2-------------------
p.m._______________________
I think it sounds best when you catch that "A"
chord if you let the top note impead alittle
[ Tab from: http://www.guitartabs.cc/tabs/t/tool/stinkfist_tab_ver_2.html ]
Then comes the interlude1
--------------------------------------------------
--------------------------0-----------------------
--------------------------0-----------------------
-2-2-2--2--2--0--2--2--2--0---2--2--2--0--2-------
-2-2-2--2--2--0--2--2--2------2--2--2--0--2-------
-2-2-2--2--2--0--2--2--2------2--2--2--0--2-------
"It's not enough I need more, nothing seems..."


Chorus
------------------------------------------
------------------------------------------
------------5-5-5-5-5-x--7--7--7----------
-2h3p2-2-x--5-5-5-5-5-x--7--7--7----------
-2h3p2-2-x--3-3-3-3-3-x--5--5--5----------
-2h3p2-2-x--------------------------------
"Finger deep within the borderline"


Solo that appears at 2:56
---0---0---0---0----0---0-----0-----0--0--0--0--0--0-0----0--
-3---3---3---3---3----3----6-----6-----6--6--6--8--8-8--12^--
-------------------------------------------------------------
-------------------------------------------------------------
-------------------------------------------------------------
-------------------------------------------------------------
Play that 4X

Interlude2
------------------------------------------------------
------------------------------------------------------
------------------------------------------------------
-12--12---14--14-14---11---0--2--2--------------------
-10--10---14--14-14---11---0--2--2--------------------
-10--10---12--12-12---9----0--2--2--------------------
"There's something kinda sad about..."

Outro
--------------------------------------------------
--------------------------------------------------
--------------------------------------------------
-2-x--x--x--2-x--x-x--2--5-5-5--7-7--------------- (2X)
-2-x--x--x--2-x--x-x--2--5-5-5--7-7---------------
-2-x--x--x--2-x--x-x--2--5-5-5--7-7---------------
"I'll      keep    digging..."

Song Order
Intro
Verse
Interlude 1
Chorus
Intro
Verse
Interlude 1
Chorus
Solo
Interlude 2
Outro
Chorus (2X)


Comments