Tool - Stinkfist Chords & Tabs

 

Stinkfist Chords & Tabs

Tool Chords & Tabs

Version: 1 Type: Bass Tab 0 ratings
1 star 2 stars 3 stars 4 stars 5 stars
comments

Stinkfist Bass Tab

TOOL stinkfist

tabbed by acid -= acid@uq.net.au =-

intro.bridge:
G [---------------------]
D [---------------------]
A [----5----5----5----5-]
D [-2----2----2----2----]

verse (part 1):
G [----------------------------]
D [----------------------------]
A [----------------------------]
D [-0-2-2--0-2-2--0-2-2--0-2-2-]

verse (part 2):
G [----------------------------]
D [-----2------2------2------2-]
A [----------------------------]
D [-0-2----0-2----0-2----0-2---]

chorus:
G [---------------------------]
D [---------------------------]
A [---------------------------]
D [-2--2-2--10--10-10--0-12-0-]

build-up (part 3):
G [----------------------------------------]
D [-------3--------0h3--------3--------3p0-]
A [----------------------------------------]
D [-0-2-2----0-2-2------0-2-2----0-2-2-----]
[ Tab from: http://www.guitartabs.cc/tabs/t/tool/stinkfist_btab.html ]
build-up (part 2):
G [-------------------------------------------]
D [-------------------------------------------]
A [-------------------------------------------]
D [-2--0-2--0-2--0-2--2/9-9--7-9--7-9--7-9-12-]

after build-up (part 1):
G [--------------------------------------]
D [--------------------------------------]
A [--------------------------------------]
D [-10-10-10--12-12-12--9-9--2-2-2-2-2-2-]

after build-up (part 2): 
G [-5-------------------------]
D [---5-4---------------------]
A [-------5-0-----------------]
D [-----------10-10-12-12-9-0-]

i'll keep diggin bit:
G [-------------------------------------------------------]
D [-------------------------------------------------------]
A [-------------------------------------------------------]
D [-2--x--x-x--2--x--x-x--2--x-x-x-x-5--5-5--7--7-7-4-4-4-]

G [-------------------------------------------------------]
D [-------------------------------------------------------]
A [-------------------------------------------------------]
D [-2--x-x-x-x-2--x--x-x--2--x-x-x-x-5--5-5--7--7-7-4-4-4-]

outro:
G [--------------]
D [---2----2---2-]
A [--------------]
D [-2----2---2---]

Comments