Tool - Sober Chords & Tabs

 

Sober Chords & Tabs

Tool Chords & Tabs

Version: 1 Type: Tab 0 ratings
1 star 2 stars 3 stars 4 stars 5 stars
comments

Sober Tab

   
Sober-Tool

Artist: Tool
Tabbed by: Edelweiss Gotera (livingdead@edsamail.com.ph)

Tunning: DADGBE (drop D)

Note: 
	The song may sound complicated but to tell you honestly It's godamn easy,
	I did even create my first tab for this. But I can assure you I have a good
	hearing to listen and to provide a tab for their song. For any of your 
	just email me at the address above.

Intro:

e-------------------------
b-10^8-----11^8-----------
g-------------------------
d-------------------------
a-------------------------(repeat 2x)
d------------------------- 
[ Tab from: http://www.guitartabs.cc/tabs/t/tool/sober_tab.html ]
verse/intro

e-------------------------
b-------------------------
g--7--5--8--5-------------
d--7--5--8--5------------- The tune goes repeatedly until
a--5--3--6--3------------- repeatedly until the chorus part
d------------------------- 

Chorus

e-------------------------
b-------------------------
g-------------------------
d--0--1--1--1--0----------
a--0--1--1--1--0----------
d--0--1--1--1--0----------

	That's how quick it is. . . now it's up to you to
	do your own style on how to make it up with my tab.
	Keep on rockin!
	Just send me a mail for more of your comments. 
Comments