Tool - Sober Chords & Tabs

 

Sober Chords & Tabs

Tool Chords & Tabs

Version: 1 Type: Bass Tab 0 ratings
1 star 2 stars 3 stars 4 stars 5 stars
comments

Sober Bass Tab

   
Sober
Artist:TOOL
Off of the Undertow Album


Here is my correction of Bucky La Dieu's Sober Tab

Key:
/=slide
x=mute
s=slap
f=finger pinch note w/thumb and index finger

Dropped D tuning

Comments:
1)Boost the bass up a LOT, add some treble, and barely any mid.
2)Use chorus
*3)Use some light overdrive for a cool sound

Intro:                     *Ocasionally
   s s s s s s s s s ss ss|s s s   s s s s s s s
G:------------------------|---------------------|
D:------------------------|---------------------|
A:------------------------|---------------------|
D:-0-0-x-x-x-x-0-0-x-xx-xx|0-0-7/5-0-0-7-5-3-0-3|

Verse: (Don't let notes ring)
   s s  s s
G:---------|
D:---------|
A:---------|
D:-0-0--0-0|

Pre-Chorus

G:---------------------------------------------------------
D:---------------------------------------------------------
A:---------------------------------------------------------
D:-12-12-12-12-12-12-12-12-12-12-12-12-0-3-3-3-3-3-3-3-3-3-

G:--------------
D:--------------
A:--------------
D:-3/13-13-13-13
[ Tab from: http://www.guitartabs.cc/tabs/t/tool/sober_btab.html ]
Chorus:

G:----------------------------------------------|
D:-------------------------------1-1------------|
A:-------5-5--5-------5-5--5--------------------|
D:-0-0-0--------0-0-0--------1-1-----1/3-3-0-0-3|

Break:
             Play a couple of x's
    f  f  f   f  f  f  f            f  f  f  f  f  f  f
G:-14-14-14-|14-15-15-12/17------|-14-14-14-14-14-14-14|
D:--0--0--0-|-0--0--0--0---------|--0--0--0--0--0--0--0|
A:----------|--------------------|---------------------|
D:----------|--------------------|---------------------|

Outro:

G:--------------------------|-------------------------|
D:-----------7--------------|----------7--------------|
A:-5-5-8-5-5---5-5----------|5-5-8-5-5---5-5---5/3-0-0|
D:-----------------7-5/3-0-0|----------------7--------|

   s s ssss s s sssssss   s s  s s
G:----------------------|---------|
D:----------------------|---------|
A:----------------------|---------|
D:-0-0-xxxx-0-0-xxxxxxx-|-0-0--0-0|


Comments