Tool - Schism Chords & Tabs

 

Schism Chords & Tabs

Tool Chords & Tabs

Version: 6 Type: Tab 0 ratings
1 star 2 stars 3 stars 4 stars 5 stars
comments

Schism Tab

Tool, Schism.
 Tabbed by James Samarin, jsamarin@telocity.com.
  
ok...here is a quicky on how to play schism, ill give ya three parts, the first two parts are adapted from bass to guitar. the third is the actuall guitar breakdown...

is in 2/4 & 3/4 time signature or 5/4

intro chords...
G-----------5-/-7------|-----------5-/-7---------|
D--8-/-3----5-/-7------|--8-/-3----5-/-7---------|
A--5-/-0----0---0------|--5-/-0----0---0---------|
D----------------------|-------------------0-----|
                                           

Main Riff...
                              
G-----------------|-------------------|-
D-------3----2----|------3----2---5---|-
A--0h3h5---0----0-|-0h3h5---0---0---0-|-
D-|------|--------|-------|-----------|-
  \\legato/         \\legato/            repeat...


[ Tab from: http://www.guitartabs.cc/tabs/t/tool/schism_tab_ver_6.html ]
Guitar Breakdown...(light distortion)
G------------------------------------------------|
D-----14------17------14------19------12------14-|
A-0-0--0--0-0--0--0-0--0--0-0--0--0-0--0--0-0--0-|
D------------------------------------------------|

G--------------------------------|
D-----10------12------10--12--14-|
A-0-0--0--0-0--0--0-0--0-0-0-0-0-|
D--------------------------------|

repeat with whammy pedal for swells...



if you would like the rest of the song, please let the webmaster of this site or me know and ill tab the rest of it out, in my opinion my version seems to be the most accurate to the CD in comparison to others of seen prompting me to to this quicky rundown
thanx a bunch, hope ya like it...jsamarin@telocity.com

 
:: Ultimate Guitar Archive :: 
http://www.ultimate-guitar.com 



Comments