Tool - Schism Chords & Tabs

 

Schism Chords & Tabs

Tool Chords & Tabs

Version: 4 Type: Bass Tab 1 rating
1 star 2 stars 3 stars 4 stars 5 stars
comments

Schism Bass Tab

Band: Tool
Song: Schism
Tab:  Newg

Intro

G|--3---2---5---7--|
D|--0---3---5---8--|x2
A|-----------------|
E|-----------------|
(At the end of the second time just play an open D and let it ring out)

Verse
[ Tab from: http://www.guitartabs.cc/tabs/t/tool/schism_btab_ver_4.html ]
G|-----------9-10-------------9--10--12-|
D|--0h10h12---0------0h10h12---0---0----|
A|--------------------------------------|
E|--------------------------------------|

Any questions or comments e-amil me at newghid@yahoo.com
Comments