Tool - Schism Chords & Tabs

 

Schism Chords & Tabs

Tool Chords & Tabs

Version: 2 Type: Bass Tab 0 ratings
1 star 2 stars 3 stars 4 stars 5 stars
comments

Schism Bass Tab

the "other guy" who transcribed this out, didn't do a very good job.
so here is the bass tab (just to be different). don't worry though it
can still be played on guitar. note: this is only the main riff.

you will be using the noramal
tool tuning, Dropped D.

G---------10---9---------------10---9---12-----|
D--0h12p0----0---0-0----0h12p0----0---0----0-0-|
A----------------------------------------------|
D----------------------------------------------|
[ Tab from: http://www.guitartabs.cc/tabs/t/tool/schism_btab_ver_2.html ]
if you're a real tool fan you'll know what i mean when i say that it
has a "46&2" kinda vibe. if you're a guitarplayer seeking a good tab
here it is for guitar:

E--------------------------------------------|
B--------------------------------------------|
G--------------------------------------------|
D--------------------------------------------|
A---------6---5---------------6---5---10-----|
D--0h12p0---0---0-0----0h12p0---0---0----0-0-|

any questions, comments, or criticism,  please e-mail me at:
Guitargawd1@aol.com. please make the topic for the e-mail say "tabs."

peace. aand enjoy the rest of the new album.
§even§soul§
Comments