Tool - Schism Chords & Tabs

 

Schism Chords & Tabs

Tool Chords & Tabs

Version: 10 Type: Bass Tab 0 ratings
1 star 2 stars 3 stars 4 stars 5 stars
comments

Schism Bass Tab

   
Song: Schism
Band: Tool
Album: Lateralus
tabbed by: Greg Costa (onetonneturtle@ozemail.com.au)
One Tonne Turtle bassist (http://onetonneturtle.cjb.net)

I watched justin play this in concert so most of it is pretty
spot on. If you think something is incorrect email me.

Thanks to DaveRockz14@excite.com for the original corrections
and to the other tabs at toolshed. Thanks also to Jarred Keltner
and Paulo Estriga for their input.

Thanks for reading my crap :) happy playing.

/ - slide up
\ - slide down
h - hammer on (punch down finger on note without striking string)
+ - play note constantly until next part


0:00 - bass chords only intro
G|---------------------------|
D|--8-7/10/12---8-7/10/12----|
A|--5-8/10/13---8-8/10/13----|
D|------------------------0--|

0:13				           x4
G|---------10---9------------10---9---12----|
D|-0h10h12----0---0--0h10h12----0---0----0--|
A|------------------------------------------|
D|------------------------------------------|

0:40				
G|----------10---9------------10---9---12---|
D|:-0h10h12----0---0--0h10h12-----0---0---0-|
A|:-----------------------------------------|
D|------------------------------------------|
                                         
                                        x4
G|---------9---7------------9---7---10----|
D|-0h10h12---0---0--0h10h12---0---0----0-:|
A|---------------------------------------:|
D|----------------------------------------|

1:07				           x4
G|---------10---9------------10---9---12----|
D|-0h10h12----0---0--0h10h12----0---0----0--|
A|------------------------------------------|
D|------------------------------------------|

1:20					    x4
G|-------------------------------------------|
D|---------10---9-------------10---9---12----|
A|-0h10h12----0---0--0h10h12-----0---0----0--|
D|-------------------------------------------|

1:35
G|----------10---9------------10---9---12---|
D|:-0h10h12----0---0--0h10h12-----0---0---0-|
A|:-----------------------------------------|
D|------------------------------------------|
                                         
                                        x4
G|---------9---7------------9---7---10----|
D|-0h10h12---0---0--0h10h12---0---0----0-:|
A|---------------------------------------:|
D|----------------------------------------|

2:02					    x4
G|-------------------------------------------|
D|---------10---9-------------10---9---12----|
A|-0h10h12----0---0--0h10h12-----0---0----0--|
D|-------------------------------------------|

2:16	                 x3 2:26
G|-------------------------|-------------------------|
D|-------------------------|-------------------------|
A|----------------------3--|-------------------------|
D|-0--3--5-3--3-5-5-3-5----|-0--3--3-5-3--3-5-5-3-5--|

2:29
G|----------10---9------------10---9---12---|
D|-0h10h12----0---0--0h10h12-----0---0----0-|
A|------------------------------------------|
D|------------------------------------------|
[ Tab from: http://www.guitartabs.cc/tabs/t/tool/schism_btab_ver_10.html ]
2:33	
G|----------10---9------------10---9---12---|
D|:-0h10h12----0---0--0h10h12-----0---0---0-|
A|:-----------------------------------------|
D|------------------------------------------|
                                         
                                        x4
G|---------9---7------------9---7---10----|
D|-0h10h12---0---0--0h10h12---0---0----0-:|
A|---------------------------------------:|
D|----------------------------------------|

Hold the final A the 4th time until next riff	
2:59				            x3
G|-------------------------------------------|
D|---------10---9-------------10---9---12----|
A|-0h10h12----0---0--0h10h12-----0---0----0--|
D|-------------------------------------------|

Same as last riff, but hold the final G until next riff			            
G|----------------------------------------|
D|---------10---9-------------10---9---12-|
A|-0h10h12----0---0--0h10h12-----0---0----|
D|----------------------------------------|

Im not too sure about this riff.. send me corrections :)
3:14		       x4
G|----------------------|
D|----------------------|
A|-/7--7-5--3-2-3-0--0--|
D|----------------------|


4:02				       x2
G|-------------14-----------------------|
D|-14--17--14------12--14--10--12-10-12-|
A|--------------------------------------|
D|--------------------------------------|


G|--------------------------------------|
D|-14--17--14--15--12--14--10--12-10-12-|
A|--------------------------------------|
D|--------------------------------------|


G|-----------------------------------------|
D|-14--17--14--15--12--12h14--10--12-10-12-|
A|-----------------------------------------|
D|-----------------------------------------|



4:31 - this one and the one below go together.
G|----9--------------------------------12------5-------5---5---5--|
D|:---------------------------/10--10-----10----------------------|
A|:-0--0--0-0--0-0--0-0--0-0--------------------------------------|
D|-------------------------------------------3----3--3-3-3-3-3-3--|
		   x2
G|---5/7---7-7-7----|---|
D|-----------------:|---|
A|-----5-5-5-5---5-:|-0-|
D|-3-3/5-5-5--------|---|

5:11
G|------------------------9-----|
D|-0-------10---9---7-----------|
A|---10h12----0---0---0-0---0+--|
D|------------------------------|

5:21 							          x2
G|-----------------------------9-----12-----9-----12-----7---7----|
D|----10----5------12----------7-----10-----7-----10-----9---9----|
A|-/8-----3----/10----10-0-0-0---0-0----0-0---0-0----0-0---0---0--|
D|----------------------------------------------------------------|

5:36
G|-------------------------------------------|
D|----10----5------12------------------------|
A|-/8-----3----/10---------------------------|
D|--------------------0+--8-8--3-3--10-10----|

5:44			 x4
G|------------------------|
D|------------------------|
A|----------5---------3-5-|
D|-0---12/7---0-5-0-3-----|

5:59		      x4
G|---------------------|
D|---------------------|
A|---------------------|
D|-3-0-2-0-0-3-0-2-0-5-|

6:12 			     x4
G|----------------------------|
D|----------------------------|
A|--8---7-----8---7---10------|
D|----0---0-0---0---0----0-0--|

6:24    repeat till end
G|-----------------------------|
D|-------------------1---------|
A|---------5---0h3h5---0h2h3-3-|
D|-0-0h3h5---0-----------------|
Comments