Tool - Schism Chords & Tabs

 

Schism Chords & Tabs

Tool Chords & Tabs

Version: 1 Type: Bass Tab 0 ratings
1 star 2 stars 3 stars 4 stars 5 stars
comments

Schism Bass Tab

   
artist: tool
song: schism
cd: latterlus
 
it inint the wole song but this is most of it

also play with a pick


key: h= hammer on

tunning D,A,D,G


intro:



---3--2--5--7--
---3--3--5--8--
---------------
---------------



[ Tab from: http://www.guitartabs.cc/tabs/t/tool/schism_btab.html ]
---3--2--5--7---
---3--3--5--8--0
---------------- 
----------------



maine rift:


---------10--9------------10--9-12          
-0h10h12---0-----0h10h12----0--0-
---------------------------------
---------------------------------
 
part ware maynad screms i know the piceses fit


--10-9---10-9-12-----
---------------------
---------------------
---------------------
Comments