Tool - Reflection Chords & Tabs

 

Reflection Chords & Tabs

Tool Chords & Tabs

Version: 1 Type: Bass Tab 0 ratings
1 star 2 stars 3 stars 4 stars 5 stars
comments

Reflection Bass Tab

Band : Tool
Album: Lateralus
Track: 11
Song : Reflection

Part : Bass
Tuning: drop D

Tabbed: Nolan Venhola
Email : nolan@tooltabs.net
Visit : Tooltabs.net

Legend

nh - natural harmonic
 ph - pinch harmonic
 
pm - palm mute
 x - muted string
 
h - hammer on
 p - pull off
 
// - slide down
 \\ - slide up
 
b - bend
 ~~ - vibrato
 
<7> - natural harmonic
 x/// - pick scrape (directions same as slide)
 




--------------------------------------------------------------------------------

*rest for 8 bars*

0:21
g------------------2-----0--
d--4------------------------
a--2--2-2--0h2-0h3---0h3---- x60
d---------------------------

3:21
(with distortion)
g----------------------------------
d----------------------------------
a--2--br---2--br---2--br---2--br---
d----------------------------------

3:43
g------------------2-----0--
d--4------------------------
a--2--2-2--0h2-0h3---0h3---- x12
d---------------------------

4:20
g----------------------
d-----4-----------10---
a--2----5--/-10--------
d----------------------

4:25           x7
g-----------------|------------
d-----------------|------------
a-----------------|------------
d--9--9--0--7/10--|--9--9--0---

4:46                    x3
g------------------2---0--|-------------------
d--4----------------------|--4--4-4--4--5-----
a--2--2-2--0h2-0h3---0h3--|--2--2-2--2--3----- (x4)
d-------------------------|-------------------

g------------------2-----0--
d--4------------------------
a--2--2-2--0h2-0h3---0h3---- x4
d---------------------------

*rest for 9 bars*

6:00
(with distortion)
g----------------------------------
d----------------------------------
a--2--br---2--br---2--br---2--br---
d----------------------------------
[ Tab from: http://www.guitartabs.cc/tabs/t/tool/reflection_btab.html ]
6:22
g------------------2-----0--
d--4------------------------
a--2--2-2--0h2-0h3---0h3---- x8
d---------------------------

6:43
g-----------------------------------------
d-----4-----------10------4---------------
a--2----5--/-10--------2----5--/-10------- x2
d-------------------------------------10--

7:04           x7
g-----------------|------------
d-----------------|------------
a-----------------|------------
d--9--9--0--7/10--|--9--9--0---

(It's muddy and difficult to hear the bass from hear on out,
 but hopefully this is close)

7:25
g-------------------------
d-------------------------
a--0h2-2-2-0h2-2-2-0h2-2-- x12
d-------------------------

7:56
g-----------------------
d----4-4---4-4-----2p0--
a--2-----2-----2h5------ x4
d-----------------------

8:06
g-------------------------
d-------------------------
a--0h2-2-2-0h2-2-2-0h2-2-- x7
d-------------------------

*rest for 1 bar*

8:27
g-----------------------2p0----
d----4-5-4---4----4-5-4-----0--
a--2-------2----2-------------- x4
d------------------------------

8:48
g----------------------------------
d-----------------5------5---------
a--2----2-5-----5----------2----2-- x2
d----------------------------------

9:10
g----------------------------------------
d----4---------4---------4------5-5------
a--2---5-----2---3-----2---5--------3-3--
d----------------------------------------

9:20        x4              x4
g--------------|---------------
d--------------|---------------
a--------------|---------------
d--9-9-0-------|--9-9-0--7/10--

9:40
g------------------
d------------------
a------------------ x4
d--9-000-9-00-9-0--

9:50                  x3
g------------------------|----------------
d------------------------|----------------
a------------------------|----------------
d--9-9-0--0-5-5-5--7/10--|--9-9-0--0-5----

Comments