Tool - Patient Chords & Tabs

 

Patient Chords & Tabs

Tool Chords & Tabs

Version: 3 Type: Tab 0 ratings
1 star 2 stars 3 stars 4 stars 5 stars
comments

Patient Tab

   
#----------------------------------PLEASE NOTE---------------------------------#
#This file is the author's own work and represents their interpretation of the #
#song. You may only use this file for private study, scholarship, or research. #
#------------------------------------------------------------------------------##

                                   THE PATIENT
                               As recorded by Tool
                         (From the 2001 Album LATERALUS)

Words and Music by Tool
Transcribed by Travis Lausch

Gtr I (D A D G B E) - 'clean tone w/delay - dist. tone'
Gtr II (D A D G B E) - 'clean tone w/delay - dist. tone'
Gtr III (D A D G B E) - 'acous. gtr. w/delay'
Gtr IV (D A D G B E) - 'dist. tone'
Gtr V (D A D G B E) - 'dist. tone'
Gtr VI (D A D G B E) - 'dist. tone'

   Intro
    Q=109
    N.C.
   5/4
    Gtrs I, II
    PM---------------------------------------------------------------------|
    E  E E E E E E E E E  4x     E E E E  E E E E E E   E E E E  E E E E E E  8x
||------------------------||-||-----------------------|-----------------------||
||o----------------------o||-||o----------------------|----------------------o||
||------------------------||-||-----------------------|-----------------------||
||------------------------||-||-----------------------|-----------------------||
||o----5-7---5-7-3-7-0-7-o||-||o---5-7----5-7-3-7-0-7-|---5-7----5-7-3-7-0-7-o||
||--3------0--------------||-||--3-----0--------------|-3-----0---------------||
|
|                                Gtr III
|   H.           H        4x     E E E Q.     Q   Q     E E E Q.     Q   Q    8x
||------------------------||-||-----------------------|-----------------------||
||o----------------------o||-||o----------------------|----------------------o||
||------------------------||-||-----------------------|--------------5--------||
||------------------------||-||---------------5-------|------------------7----||
||o----------------------o||-||o-7h8p7-5----------7---|-7h8p7-5--------------o||
||------------------------||-||-----------------------|-----------------------||


                                                      Gtr II
  PM--------------------------------------------------------------------|
  E E  E  E E E E E  E E     E  E E E E E E E E E     E E E E E E E E E E
|------------------------||------------------------||----------------------||
|------------------------||o----------------------o||----------------------||
|------------------------||------------------------||----------------------||
|-----------2----------2-||-----------2---------2--||---------2---------2--||
|-0-3--5--0---0-3-5--0---||o-0--3-5-0---0-3-5-0---o||-0-3-5-0---0-3-5-0----||
|------------------------||------------------------||----------------------||
|
|                                                     Gtr I
| >
|                                                     PM------------|
| Q   +Q.     Q   Q.         H.           H           E E E E E E E E E E
|------------------------||------------------------||----------------------||
|------------------------||o----------------------o||----------------------||
|------------------------||------------------------||----------------------||
|------------------------||------------------------||---------2---------2--||
|-7---(7)----------------||o----------------------o||-0-3-5-0---0-3-5-0----||
|------------------------||------------------------||----------------------||


                1st Verse
                 N.C.
 4/4            5/4
                 PM--------------------------------------------|
   W             E E E E E E E E E E  8x     E E E E E E E E E E  4x
|------------||-----------------------||-||-----------------------||
|------------||o---------------------o||-||o---------------------o||
|------------||-----------------------||-||----2-4---2-4---4---4--||
|------------||-----------------------||-||--------------5---2----||
|------------||o---5-7---5-7-3-7-0-7-o||-||o---------------------o||
|------------||--3-----0--------------||-||--3-----0--------------||
|
|                PM--------------------------------------------|
| +W             E E E E E E E E E E  8x     E E E E E E E E E E  4x
|------------||-----------------------||-||-----------------------||
|------------||o---------------------o||-||o---------------------o||
|------------||-----------------------||-||-----------------------||
|-(2)--------||-----------------------||-||-----------------------||
|------------||o---5-7---5-7-3-7-0-7-o||-||o---5-7---5-7-3-7-0-7-o||
|------------||--3-----0--------------||-||--3-----0--------------||


                                                 4/4
    Gtrs I, II
    PM------------------------------------|
    E E E E E E E E E E  3x E E E E E E E E E E   +W
||-----------------------||---------------------|--------||
||o---------------------o||---------------------|--------||
||-----------------------||---------------------|--------||
||----------2---------2--||---------2---------2-|-(2)----||
||o-0-3-5-0---0-3-5-0---o||-0-3-5-0---0-3-5-0---|--------||
||-----------------------||---------------------|--------||


   2nd Verse
    N.C.
   5/4
    Gtr II
    PM--------------------------------------------------------------|
    E E E E E E E E E E  4x E E E E E E E E E E   E E E E E E E E E E
||-----------------------||---------------------|----------------------|
||o---------------------o||---------------------|----------------------|
||----0-2---4---0-2---4--||---0-2---4---0-2---0-|-2---4---0-2---0-2----|
||--2-----2---2-----2----||-2-----2---2-----2---|---2---2-----2-----2--|
||o---------------------o||---------------------|----------------------|
||-----------------------||---------------------|----------------------|
|
|   Gtr I
|   PM--------------------------------------------------------------|
|   E E E E E E E E E E  4x E E E E E E E E E E   E E E E E E E E E E
||-----------------------||---------------------|----------------------|
||o---------------------o||---------------------|----------------------|
||-----------------------||---------------------|----------------------|
||----------2---------2--||---------2---------2-|---------2---------2--|
||o-0-3-5-0---0-3-5-0---o||-0-3-5-0---0-3-5-0---|-0-3-5-0---0-3-5-0----|
||-----------------------||---------------------|----------------------|


                                             5/4
  PM----------------------------------|
  E E E E E E E E E E   E E E E E E E E E E   +Q   +W
|---------------------|---------------------|-------------|
|---------------------|---------------------|-------------|
|-4---0-2---0-2---4---|-0-2---4-2---4-2-----|-------------|
|---2-----2-----2---2-|-----2-----2-------2-|-(2)--(2)----|
|---------------------|-----------------0---|-------------|
|---------------------|---------------------|-------------|
|
| PM----------------------------------|
| E E E E E E E E E E   E E E E E E E E E E   +Q   +W
|---------------------|---------------------|-------------|
|---------------------|---------------------|-------------|
|---------------------|---------------------|-------------|
|---------2---------2-|---------2---------2-|-(2)--(2)----|
|-0-3-5-0---0-3-5-0---|-0-3-5-0---0-3-5-0---|-------------|
|---------------------|---------------------|-------------|


                 Bridge
                  Q=113
                  F5   D5   G5   A5             BbA5D5
 4/4             5/4
  Gtr IV
    <
                                              PM----|
    W             Q.   Q.   Q.   E   +H.      E E E E   3x
|-(12)--------||-------------------|--------------------||
|-------------||o------------------|-------------------o||
|-------------||-------------------|--------------------||
|-------------||--3----0----5----7-|-(7)----------------||
|-------------||o-3----0----5----7-|-(7)------7-8-7-0--o||
|-------------||--3----0----5----7-|-(7)------7-8-7-0---||
|
| Gtrs I, II
|  +W             H.        H         H.      H         3x
|-------------||-------------------|--------------------||
|-------------||o------------------|-------------------o||
|-------------||-------------------|--------------------||
|--(2)--------||-------------------|--------------------||
|-------------||o------------------|-------------------o||
|-------------||-------------------|--------------------||


  F5   D5   A5   A5                      D5    F5     D5   A5     A5
  Gtrs I, II
                                                      ~~
  H.        H         W                E E     E  E E Q.   E  E E E
|------------------|-----------------------||------------------------|
|------------------|-----------------------||o-----------------------|
|------------------|-----------------------||-----5-----------5------|
|------------------|-------------------5-7-||--7----5-7----7----5-7--|
|------------------|-----------------------||o-----------------------|
|------------------|-----------------------||------------------------|
|
| Gtr IV
| Q.   Q.   Q.   E   +E  E E E E E E E E E     Q.     Q.   Q.     E
|------------------|-----------------------||------------------------|
|------------------|-----------------------||o-----------------------|
|------------------|-----------------------||------------------------|
|-3----0----5----7-|-(7)-7-7-7-7-7-7-7-7-0-||--3------0----5------7--|
|-3----0----5----7-|-(7)---------------7-0-||o-3------0----5------7--|
|-3----0----5----7-|-(7)---------------7-0-||--3------0----5------7--|


                 BbA5D5    F5     D5   A5     A5
          ~~                      ~~
   E  E E Q.   E E E E  3x E  E E Q.   E  E E E
|-----------------------||----------------------|
|----------------------o||----------------------|
|-----5----------5------||----5-----------5-----|
|--7----5-7----7---5-7--||-7----5-7----7----5-7-|
|----------------------o||----------------------|
|-----------------------||----------------------|
|
|              PM----|
| +H.          E E E E  3x Q.     Q.   Q.     E
|-----------------------||----------------------|
|----------------------o||----------------------|
|-----------------------||----------------------|
|-(7)-------------------||-3------0----5------7-|
|-(7)----------7-8-7-0-o||-3------0----5------7-|
|-(7)----------7-8-7-0--||-3------0----5------7-|


            ~
   E  E  E  Q  +Q      +E  +E  +E
|-----------------------------------||
|-----------------------------------||
|-----5-----------------------------||
|--7-----5--7--(7)b8===(7)-(7)r(7)--||
|-----------------------------------||
|-----------------------------------||
|
| +Q    +W
|-----------------------------------||
|-----------------------------------||
|-----------------------------------||
|-(7)---(7)-------------------------||
|-(7)---(7)-------------------------||
|-(7)---(7)-------------------------||


  N.C.
  Gtr II
        ~~                        ~~~
  E E E Q.   E  E   E  E   E E E  Q    E   E   E   E   E
|------------------------|--------------------------------|
|------------------------|--------------------------------|
|---5----------[5]-------|--------------------[5]---------|
|-7---5-7----7-----[5]-7-|-8-7-5-[7]--[7]-[7]-----[5]-[7]-|
|------------------------|--------------------------------|
|------------------------|--------------------------------|
|
| Gtr I
|       ~~                        ~~~
| E E E Q.   E  E   E  E   E E E  Q.       E   E   E   E
|------------------------|--------------------------------|
|------------------------|--------------------------------|
|---5-----------5--------|---------------------5----------|
|-7---5-7----7------5--7-|-8-7-5--7--------7-------5---7--|
|------------------------|--------------------------------|
|------------------------|--------------------------------|


               ~~~
   E   E   E   Q    E   E   E  E E
|-----------------------------------|
|-----------------------------------|
|-----[5]------------------[5]------|
|-[7]-----[5]-[7]--[7]-[7]-----5-7--|
|-----------------------------------|
|-----------------------------------|
|
|              ~~~
|  E   E   E   Q    E   E   E  E E
|-----------------------------------|
|-----------------------------------|
|------5--------------------5-------|
|--7-------5---7----7---7------5-7--|
|-----------------------------------|
|-----------------------------------|


           ~~~                                ~~~
   E  E E  Q    E   E   E   E   E     E  E E  Q    E   E   E   E   E
|----------------------------------|----------------------------------|
|----------------------------------|----------------------------------|
|----------------------[5]---------|-----5----------------[5]---------|
|-[8]-7-5-[7]--[7]-[7]-----[5]-[7]-|-[7]---5-[7]--[7]-[7]-----[5]-[7]-|
|----------------------------------|----------------------------------|
|----------------------------------|----------------------------------|
|
|          ~~~                                ~~~
|  E  E E  Q    E   E   E   E   E     E  E E  Q    E   E   E   E   E
|----------------------------------|----------------------------------|
|----------------------------------|----------------------------------|
|-----------------------5----------|-----5-----------------5----------|
|--8--7-5--7----7---7-------5---7--|--7----5--7----7---7-------5---7--|
|----------------------------------|----------------------------------|
|----------------------------------|----------------------------------|


             ~~~
   E   E  E  Q    E   E   E   E   E
|-------------------------------------|
|-------------------------------------|
|------------------------[5]----------|
|-[8]-[7]-5-[7]--[7]-[7]-----[5]-[7]--|
|-------------------------------------|
|-------------------------------------|
|
|            ~~~
|  E   E  E  Q    E   E   E   E   E
|-------------------------------------|
|-------------------------------------|
|-------------------------5-----------|
|--8---7--5--7----7---7-------5---7---|
|-------------------------------------|
|-------------------------------------|


             ~~~
   E  E  E   Q    E   E   E  E E
|--------------------------------|
|--------------------------------|
|-----5------------------[5]-----|
|-[7]---[5]-[7]--[7]-[7]-----5-7-|
|--------------------------------|
|--------------------------------|
|
|            ~~~
|  E  E  E   Q    E   E   E  E E
|--------------------------------|
|--------------------------------|
|-----5-------------------5------|
|--7-----5---7----7---7------5-7-|
|--------------------------------|
|--------------------------------|


                                      N.C.
                                      Gtr V
         ~~~
  E E E  Q   +Q       +Q    +E        E  E E Q  E E E E E
|---------------------------------||-----------------------|
|---------------------------------||o----------------------|
|---------------------------------||-----------------------|
|-8-7-5-[7]--(7)b8====(7)---(7)r\-||--7s10-5-7--7-7-7-5h7--|
|---------------------------------||o----------------------|
|---------------------------------||-----------------------|
|
|                                     Gtr IV
|        ~~~
| E E E  Q    E     E  E  E  E        E  E E Q  E E E E E
|---------------------------------||-----------------------|
|---------------------------------||o----------------------|
|----------------------5----------||-----------------------|
|-8-7-5--7----7-----7-----5--7----||-----------------------|
|---------------------------------||o-0--3---0--0-0-0------|
|---------------------------------||-------5----------5h7--|

[ Tab from: http://www.guitartabs.cc/tabs/t/tool/patient_tab_ver_3.html ]
                          A5C5A55   G5A5G5    A5    C5A55   G5A5G5    A5
  E  E E Q  E E E E E     H.          H           H.          H
|----------------------||-----------------------|------------------------|
|---------------------o||-----------------------|------------------------|
|----------------------||-----------------------|------------------------|
|-7s10-5-7--7-7-7-5h7--||-----------------------|------------------------|
|---------------------o||-----------------------|------------------------|
|----------------------||-----------------------|------------------------|
|
| E  E E Q  E E E E E     E  E E Q  E E S S E E   E  E E Q  E E S S E E
|----------------------||-----------------------|------------------------|
|---------------------o||-----------------------|------------------------|
|----------------------||-----------------------|------------------------|
|----------------------||-7s10-5-7--5-7-5-5-5s7-|-7s10-5-7--5-7-5-5-5s7--|
|-0--3---0--0-0-0-----o||-7s10-5-7--5-7-5-5-5s7-|-7s10-5-7--5-7-5-5-5s7--|
|------5----------5h7--||-7s10-5-7--5-7-5-5-5s7-|-7s10-5-7--5-7-5-5-5s7--|


  A5C5 G5A5 G5A5G5    A5     C5 G5A5       G5    A5 G5
                          Gtr I
  H.          H            E  E E  S  S  E  S  S  E S S S S S S
|-----------------------|---------------------------------------||
|-----------------------|-10s13s8-10-10-10-10-10-10-8-8-8-8-8-8-||
|-----------------------|--9s12s7--9--9--9--9--9--9-7-7-7-7-7-7-||
|-----------------------|---------------------------------------||
|-----------------------|---------------------------------------||
|-----------------------|---------------------------------------||
|
| Gtr VI
| E  E E Q  E E S S E E    E  E E  Q        E     E S S E   E
|-----------------------|---------------------------------------||
|-----------------------|---------------------------------------||
|-9s12-7-9--7-9-7-7-7s9-|--9s12-7--9--------7-----9-7-7-7---7---||
|-7s10-5-7--5-7-5-5-5s7-|--7s10-5--7--------5-----7-5-5-5---5---||
|-7s10-5-7--5-7-5-5-5s7-|--7s10-5--7--------5-----7-5-5-5---5---||
|-7s10-5-7--5-7-5-5-5s7-|--7s10-5--7--------5-----7-5-5-5---5---||
|
| Gtr IV
| E  E E Q  E E S S E E    E  E E  Q        E     E S S E   E
|-----------------------|---------------------------------------||
|-----------------------|---------------------------------------||
|-----------------------|---------------------------------------||
|-7s10-5-7--5-7-5-5-5s7-|--7s10-5--7--------5-----7-5-5-5---5---||
|-7s10-5-7--5-7-5-5-5s7-|--7s10-5--7--------5-----7-5-5-5---5---||
|-7s10-5-7--5-7-5-5-5s7-|--7s10-5--7--------5-----7-5-5-5---5---||


    N.C.
    Gtrs I, II
    E E E E E E E E E E  8x
||-----------------------||-|
||o---------------------o||-|
||-----------------------||-|
||-----------------------||-|
||o-0-3-5-0-7-0-3-5-0-7-o||-|
||-----------------------||-|


    PM--------------------------------------------|
    E E E E E E E E E E  4x     E E E E E E E E E E  4x
||-----------------------||-||-----------------------||
||o---------------------o||-||o---------------------o||
||-----------------------||-||-----------------------||
||-----------------------||-||-----------------------||
||o-0-3-5-0-7-0-3-5-0-7-o||-||o-5-3-5-0-7-0-3-5-0-7-o||
||-----------------------||-||-----------------------||


                  Q=115
                  D5G5G5D5A5    G5  A5        G5  A5    G5  A5
                            PM|           PM|       PM|
  Wx4             E E E E E E E E E E     E E E E E E E E E E   3x
|--------------||---------------------||------------------------||
|--------------||---------------------||o----------------------o||
|--------------||---------------------||------------------------||
|--------------||-0-3h5p0-7-----5---7-||------5---7-----5---7---||
|--------------||-0-3h5p0-7-----5---7-||o-----5---7-----5---7--o||
|--------------||-0-3h5p0-7-0-3-5---7-||--0-3-5---7-0-3-5---7---||


    N.C.                    F5    D5  N.C.        F5    D5  N.C.
    PM----------------|       PM|     PM------|     PM|     PM------|
    E E E E E E E E E E  4x E E E E E E E E E E   E E E E E E E E E E
||-----------------------||---------------------|---------------------|
||o---------------------o||---------------------|---------------------|
||-----------------------||---------------------|---------------------|
||-----------------------||-3-----0-0-----------|-3-----0-0-----------|
||o---------------------o||-3-----0-0-----------|-3-----0-0-----------|
||--3-0-1-0-0-2-3-0-1-0--||-3-0-0-0-0-2-3-0-1-0-|-3-0-0-0-0-2-3-0-1-0-|


  F5    D5  E5N.C.      G5    D5  E5N.C.            G5A5      G5A5
  Gtr I
    PM|       PM----|     PM|       PM------------|     PM--|
  E E E E E E E E E E   E E E E E E E E E E   E E E E E E E E E E
|---------------------|---------------------|----------------------|
|---------------------|---------------------|----------------------|
|---------------------|---------------------|----------------------|
|-3-----0-0h2---------|-3-----0-0h2---------|-------5h7-------5h7--|
|-3-----0-0h2---------|-3-----0-0h2---------|-------5h7-------5h7--|
|-3-0-0-0-0h2-3-0-1-0-|-3-0-0-0-0h2-3-0-1-0-|-5-7-7-5h7-5-7-7-5h7--|
|
| Gtr II
|   PM|     PM------|     PM|       PM------------|     PM--|
| E E E E E E E E E E   E E E E E E E E E E   E E E E E E E E E E
|---------------------|---------------------|----------------------|
|---------------------|---------------------|----------------------|
|---------------------|---------------------|----------------------|
|-3-----0-0-----------|-3-----0-0h2---------|-------5h7-------5h7--|
|-3-----0-0-----------|-3-----0-0h2---------|-------5h7-------5h7--|
|-3-0-0-0-0-2-3-0-1-0-|-3-0-0-0-0h2-3-0-1-0-|-5-7-7-5h7-5-7-7-5h7--|


        G5A5      G5A5  G5A5  G5A5G5A5  G5A5  G5A5  G5A5G5A5  G5A5
  PM--|     PM--|       PM--|     PM--|       PM--|         PM
  E E E E E E E E E E   E E E E E E E E E E   E E E E E E E E E E
|---------------------|---------------------|----------------------|
|---------------------|---------------------|----------------------|
|---------------------|---------------------|----------------------|
|-------5h7-------5h7-|-------5h7-------5h7-|-------5h7-5h7---5h7--|
|-------5h7-------5h7-|-------5h7-------5h7-|-------5h7-5h7---5h7--|
|-5-7-7-5h7-5-7-7-5h7-|-5-7-7-5h7-5-7-7-5h7-|-5-7-7-5h7-5h7-7-5h7--|
|
| PM--|     PM--|           PM--|     PM--|       PM--|     PM--|
| E E E E E E E E E E   E E E E E E E E E E   E E E E E E E E E E
|---------------------|---------------------|----------------------|
|---------------------|---------------------|----------------------|
|---------------------|---------------------|----------------------|
|-------5h7-------5h7-|-5h7-------5h7-------|-5h7-------5h7---5h7--|
|-------5h7-------5h7-|-5h7-------5h7-------|-5h7-------5h7---5h7--|
|-5-7-7-5h7-5-7-7-5h7-|-5h7-5-7-7-5h7-5-7-7-|-5h7-5-7-7-5h7-7-5h7--|


  N.C.
  E Q   E E E  E   E  E E   E E E E E E  E   E  E E   E E E E E E  E   E  E E
|-------------------------|-------------------------|--------------------------|
|-------------------------|-------------------------|--------------------------|
|-------------------------|-------------------------|--------------------------|
|-----------5-[7]-[7]-----|-----------5-[7]-[7]-----|-----------5-[7]-[7]------|
|-------5h7-----------5h7-|-------5h7-----------5h7-|-------5h7-----------5h7--|
|-5-7---------------------|-5-7-7-------------------|-5-7-7--------------------|
|
| E E E E E E  E   E  E E   E E E E E E  E   E  E E   E E E E E E  E   E  E E
|-------------------------|-------------------------|--------------------------|
|-------------------------|-------------------------|--------------------------|
|-------------------------|-------------------------|--------------------------|
|-----------5-[7]-[7]-----|-----------5-[7]-[7]-----|-----------5-[7]-[7]------|
|-------5h7-----------5h7-|-------5h7-----------5h7-|-------5h7-----------5h7--|
|-5-7-7-------------------|-5-7-7-------------------|-5-7-7--------------------|


                                                  1.,2.,3.
                                Gtrs I, II
  E E  E  E E E  E   E  E E     Q   Q  Q  Q  Q    Q   Q  Q  Q  Q
|---------------------------||------------------|-------------------||
|---------------------------||o-----------------|------------------o||
|---------------------------||---------4--5--4--|-----4-------------||
|-------------5-[7]-[7]-----||------2-----------|-2------2--5--2----||
|---------5h7-----------5-7-||o-0---------------|------------------o||
|-5-7-[7]-------------------||------------------|-------------------||
|
| E E  E  E E E  E   E  E E     H.        H       H.        H
|---------------------------||------------------|-------------------||
|---------------------------||o-----------------|------------------o||
|---------------------------||------------------|-------------------||
|-------------5-[7]-[7]-----||------------------|-------------------||
|---------5h7-----------5-7-||o-----------------|------------------o||
|-5-7--7--------------------||------------------|-------------------||


  4.
                       Gtr V
  H     H.             H.           H         Q   +H        E  E  E  E
|------------------||----------------------|----------------------------|
|------------------||o---------------------|---------------17-17-17-17--|
|------------------||--------------16------|---------------16-16-16-16--|
|------------------||----------------------|-14--(14)------14-14-14-14--|
|------------------||o-0-------------------|----------------------------|
|------------------||----------------------|----------------------------|
|
| Gtrs I, II
| Q  Q  Q   Q  Q       Q    Q   Q   Q   Q     Q    Q    Q   Q     Q
|------------------||----------------------|----------------------------|
|------------------||o---------------------|----------------------------|
|----4-------------||----------16--17--16--|------16--------------------|
|-2-----2---5--2/--||------14--------------|-14--------14--17----14-----|
|------------------||o-0-------------------|----------------------------|
|------------------||----------------------|----------------------------|


  1.                                                    2.
  H.           Q   q     E  E  +H        E  E  E  E     Q  +W
|---------------------|------------------------------||----------------------|
|---------------------|-----------------17-17-17-17-o||----------------------|
|---------------------|-----------------16-16-16-16--||----------------------|
|-------------14--12--|-12h14-(14)------14-14-14-14--||----------------------|
|-0-------------------|-----------------------------o||-0--(0)---------------|
|---------------------|------------------------------||----------------------|
|
| Q    Q   Q   Q   Q     Q      Q    Q   Q     Q        Q   Q    Q   Q   Q
|---------------------|------------------------------||----------------------|
|---------------------|-----------------------------o||----------------------|
|---------16--17--16--|--------16--------------------||---------16--17--16---|
|-----14--------------|-14----------14--17----14-----||----14----------------|
|-0-------------------|-----------------------------o||-0--------------------|
|---------------------|------------------------------||----------------------|


                   A5                 G5      D5          F5
  +W               Q      H.          H       H.          H
|----------------------||-------------------|--------------------|
|----------------------||-------------------|--------------------|
|----------------------||-------------------|--------------------|
|----------------------||-------------------|--------------------|
|-(0)------------------||-------------------|--------------------|
|----------------------||-------------------|--------------------|
|
|                         PM---|              PM---|
|  Q    Q   Q   Q  E E    E  E E Q  E Q  Q    E  E E Q  E Q  Q
|----------------------||-------------------|--------------------|
|----------------------||-------------------|--------------------|
|-14---16--14--12------||--------9--9-7--7--|--------2--2-5--5---|
|----------------------||-7--7-7-7--7-5--5--|-0--0-0-0--0-3--3---|
|------------------7-7-||-7--7-7-7--7-5--5--|-0--0-0-0--0-3--3---|
|------------------7-7-||-7--7-7-7--7-5--5--|-0--0-0-0--0-3--3---|


  A5            G5      D5         F5       A5                G5
                        Gtr V
                                                TP  TP        TP
  H.            H       W             E E    E  E  +H         H
|---------------------|-------------------|--------------------------|
|---------------------|-----------------6s|=10-10-(10)--------8------|
|---------------------|-----------------5s|==9--9--(9)--------7------|
|---------------------|-------------------|--------------------------|
|---------------------|-------------------|--------------------------|
|---------------------|-------------------|--------------------------|
|
| PM---|                PM--|                PM---|
| E  E E  Q   E Q  Q    E E E Q  E Q  Q      E  E   E   Q   E Q  Q
|---------------------|-------------------|--------------------------|
|--------10--10-8--8--|-------------------|------------10--10-8--8---|
|---------9---9-7--7--|-----2-2--2-5--5---|--9--9---9---9---9-7--7---|
|-7--7-7--7---7-5--5--|-0-0-0-0--0-3--3---|--7--7---7---7---7-5--5---|
|-7--7-7--7---7-5--5--|-0-0-0-0--0-3--3---|--7--7---7---7---7-5--5---|
|-7--7-7--7---7-5--5--|-0-0-0-0--0-3--3---|--7--7---7---7---7-5--5---|


  D5          F5      A5              G5      D5          F5
  TP          TP
  H.          H        E  E  E  Q   E Q  Q    H.          H
|-------------------|-----------------------|--------------------||
|-3-----------6-----|-10-10-10-10--10-8--8--|--------------------||
|-2-----------5-----|--9--9--9--9---9-7--7--|--------------------||
|-------------------|-----------------------|--------------------||
|-------------------|-----------------------|--------------------||
|-------------------|-----------------------|--------------------||
|
| PM---|                                      PM-|
| E  E E Q  E Q  Q     E  E  E  Q   E Q  Q    E  E E Q  E Q  Q
|-------------------|-----------------------|--------------------||
|-------------6--6--|-10-10-10-10--10-8--8--|--------------------||
|--------2--2-5--5--|--9--9--9--9---9-7--7--|-2--2-2-2--2-5------||
|-0--0-0-0--0-3--3--|--7--7--7--7---7-5--5--|-0--0-0-0--0-3------||
|-0--0-0-0--0-3--3--|--7--7--7--7---7-5--5--|-0--0-0-0--0-3------||
|-0--0-0-0--0-3--3--|--7--7--7--7---7-5--5--|-0--0-0-0--0-3------||


  Q=113
  N.C.
                   PM----------------------------------------|
  Wx4              E E E E E E E E E E  4x E E E E E E E E E E
|--------------||-----------------------||----------------------|
|--------------||o---------------------o||----------------------|
|--------------||-----------------------||----------------------|
|--------------||-----------------------||----------------------|
|--------------||o---5-7---5-7-3-7-0-7-o||---5-7---5-7-3-7-0-7--|
|--------------||--3-----0--------------||-3-----0--------------|


                                      H.=H
    PM----------------------------------------|
  E E E E E E E E E E   E E E E E E E E E E   E E E E E E +H
|---------------------|---------------------|--------------------*|
|---------------------|---------------------|--------------------*|
|---------------------|---------------------|--------------------*|
|---------------------|---------------------|--------------------*|
|---5-7---5-7-3-7-0-7-|---5-7---5-7-3-7-0-7-|---5-7---5-7-(7)----*|
|-------0-------------|-3-----0-------------|-3-----0------------*|


Duration Legend
---------------
W - whole; H - half; Q - quarter; E - 8th; S - 16th; T - 32nd; X - 64th; a - acciaccatura
+ - note tied to previous; . - note dotted; .. - note double dotted
Uncapitalized letters represent notes that are staccato (1/2 duration)
Irregular groupings are notated above the duration line
Duration letters will always appear directly above the note/fret number it represents the
duration for.  Duration letters with no fret number below them represent rests.  Multi-
bar rests are notated in the form Wxn, where n is the number of bars to rest for.  Low
melody durations appear below the staff

Tablature Legend
----------------
 h   - hammer-on
 p   - pull-off
 b   - bend
 pb  - pre-bend
 r   - bend release (if no number after the r, then release immediately)
 /\  - slide into or out of (from/to "nowhere")
 s   - legato slide
 S   - shift slide
  - natural harmonic
[n]  - artificial harmonic
n(n) - tapped harmonic
 ~   - vibrato
 tr  - trill
 T   - tap
 TP  - trem. picking
 PM  - palm muting
\n/  - tremolo bar dip; n = amount to dip
 \n  - tremolo bar down
 n/  - tremolo bar up
/n\  - tremolo bar inverted dip
 =   - hold bend; also acts as connecting device for hammers/pulls
   - volume swell (louder/softer)
 x   - on rhythm slash represents muted slash
 o   - on rhythm slash represents single note slash

Misc Legend
-----------
 |  - bar
||  - double bar
||o - repeat start
o|| - repeat end
*|  - double bar (ending)
 :  - bar (freetime)
 $  - Segno
 &  - Coda
Tempo markers -  = BPM(8/16=s8/s16), where s8 = swing 8ths, s16 = swing 16ths


***************************************************************************************
* Generated using Power Tab Editor by Brad Larsen - http://powertab.guitarnetwork.org *
***************************************************************************************
Comments