Tool - Part Of Me Chords & Tabs

 

Part Of Me Chords & Tabs

Tool Chords & Tabs

Version: 4 Type: Tab 0 ratings
1 star 2 stars 3 stars 4 stars 5 stars
comments

Part Of Me Tab

   
Tool
Part of Me


dropped d-tuning:   d-A-d-G-B-E
                  low         high

(distortion)
(feedback)                                   
                                             
e-----------------------------------------------------|
b-----------------------------------------------------|
g-----------------------------------------------------|
d---2-x-x-2-x-x-10-x-x-10-x-x-2-x-x-2-x-x-5--4--2-0---|
a---2-x-x-2-x-x-10-x-x-10-x-x-2-x-x-2-x-x-5--4--2-0---|
d---2-x-x-2-x-x-10-x-x-10-x-x-2-x-x-2-x-x-5--4--2-0---|

                                                     (x2)


e-----------------------------------|
b-----------------------------------|
g-----------------------------------|     (x4)
d---0-6-5-0-3-----0-6-5-0-3--3-3----|
a---0-6-5-0-3-----0-6-5-0-3--3-3----|
d---0-6-5-0-3-----0-6-5-0-3--3-3----|
  pm - - |      pm - |


e----------------------------------------|
b----------------------------------------|
g----------------------------------------|                 
d---0-2--0-10--0-2--0-10--0-2---10-------|
a---0-2--0-10--0-2--0-10--0-2---10-------|
d---0-2--0-10--0-2--0-10--0-2---10-------|



e-----------------------------------|
b-----------------------------------|
g-----------------------------------|   (x2)   
d---0-6-5-0-3-----0-6-5-0-3--3-3----|
a---0-6-5-0-3-----0-6-5-0-3--3-3----|
d---0-6-5-0-3-----0-6-5-0-3--3-3----|
 pm - - - - - - - - - - -|




e---------------------------------|
b---------------------------------|
g---------------------------------|     (x2)
d-----------3-----------3-------3-|
a-----6-5---------6-5------6-5----|
d---0-----0-----0-----0-----------|



e---------------------------------------|
b---------------------------------------|
g---------------------------------------|   
d---0-6-5-0-3-----0-6-5-0-3--3-3--3-3-3-|
a---0-6-5-0-3-----0-6-5-0-3--3-3--3-3-3-|
d---0-6-5-0-3-----0-6-5-0-3--3-3--3-3-3-|
 pm - - - - - - - - - - - - - - |



*short rest*



e----------------------------------------|
b----------------------------------------|
g----------------------------------------|   
d----------------------------------------|
a-------------------(for 12 bars,slowly--|
d--0-0-0-0-0-0-0-0-0-let off in 12th bar)|


[ Tab from: http://www.guitartabs.cc/tabs/t/tool/part_of_me_tab_ver_4.html ]
e-----------------------------------------------------|
b-----------------------------------------------------|
g-----------------------------------------------------|
d---2-x-x-2-x-x-10-x-x-10-x-x-2-x-x-2-x-x-5--4--2-0---|
a---2-x-x-2-x-x-10-x-x-10-x-x-2-x-x-2-x-x-5--4--2-0---|
d---2-x-x-2-x-x-10-x-x-10-x-x-2-x-x-2-x-x-5--4--2-0---|

                                                     (x2)

solo

e-----------------------------------------|
b------------------------------------12---|
g---------9-11-9------9----------9--------|
d------9----------9------9-----9------9---|
a--7------------------------7-------------|
d-----------------------------------------|




e-----------------------------------|
b-----------------------------------|
g-----------------------------------|     (x6)
d---0-6-5-0-3-----0-6-5-0-3--3-3----|
a---0-6-5-0-3-----0-6-5-0-3--3-3----|
d---0-6-5-0-3-----0-6-5-0-3--3-3----|
  pm - - - - - - - - - - - |



e----------------------------------------|
b----------------------------------------|
g----------------------------------------|                 
d---0-2--0-10--0-2--0-10--0-2---10-------|
a---0-2--0-10--0-2--0-10--0-2---10-------|
d---0-2--0-10--0-2--0-10--0-2---10-------|



e-----------------------------------|            \
b-----------------------------------|            |
g-----------------------------------|     (x4)   |
d---0-6-5-0-3-----0-6-5-0-3--3-3----|            |
a---0-6-5-0-3-----0-6-5-0-3--3-3----|            |
d---0-6-5-0-3-----0-6-5-0-3--3-3----|            |
  pm - - |      pm - |                           |
                                                 | x2
                                                 |
e---------------------------------|              |
b---------------------------------|              |
g---------------------------------|     (x2)     |
d-----------3-----------3-------3-|              |
a-----6-5---------6-5------6-5----|              |
d---0-----0-----0-----0-----------|              |
                                                /


e---------------------------------------|
b---------------------------------------|
g---------------------------------------|   
d---0-6-5-0-3-----0-6-5-0-3--3-3--3-3-3-|
a---0-6-5-0-3-----0-6-5-0-3--3-3--3-3-3-|
d---0-6-5-0-3-----0-6-5-0-3--3-3--3-3-3-|
 pm - - - - - - - - - - - - - - |
Comments