Tool - Part Of Me Chords & Tabs

 

Part Of Me Chords & Tabs

Tool Chords & Tabs

Version: 1 Type: Tab 0 ratings
1 star 2 stars 3 stars 4 stars 5 stars
comments

Part Of Me Tab

Part of Me
by
TooL
from Opiate
dropped d tunning as always

[ Tab from: http://www.guitartabs.cc/tabs/t/tool/part_of_me_tab.html ]
e------------------------------
B------------------------------
G------------------------------
D-6-5-0-3-0-6-5-0-3-3-3--------  3 times
A-6-5-0-3-0-6-5-0-3-3-3--------
D-6-5-0-3-0-6-5-0-3-3-3--------

e------------------------------
B------------------------------
G------------------------------
D-2-5-2-5-5-5------------------
A-2-3-2-3-3-5------------------
D------------------------------
Comments