Tool - Parabola Outro Chords & Tabs

 

Parabola Outro Chords & Tabs

Tool Chords & Tabs

Version: 2 Type: Tab 0 ratings
1 star 2 stars 3 stars 4 stars 5 stars
comments

Parabola Outro Tab

   
  tool
  parabola-outro
  (B-E-D-G-B-e)
   key:
    ()=natural harmonics
    *=let this note ring   

  lots of heavy,bassy distortion... 
[ Tab from: http://www.guitartabs.cc/tabs/t/tool/parabola_outro_tab_ver_2.html ]
e|-------------------------------------|
B|-------------------------------------|
G|-------------------------------------|
D|-------------------------2-----------|
E|--2--0h2-0h2-0h2-2h3-2---0----5-5-2--|
B|--0*-------------------3------3-3-0--|
   

  roll back volume knob like in parabol...

e|-------------------------------------------(12)--|
B|----------------------------------------(12)-----|
G|-------------------------------------(12)--------|
D|-------------------------------------------------|
E|--19--17h19p17--15--14-15-14-10---12-------------|
B|-------------------------------------------------|
Comments