Tool - Parabola Complete Chords & Tabs

 

Parabola Complete Chords & Tabs

Tool Chords & Tabs

Version: 1 Type: Tab 0 ratings
1 star 2 stars 3 stars 4 stars 5 stars
comments

Parabola Complete Tab

              this song is pretty pimp.its got lots of diferetn parts so there isnt really a 
 	      way to call them verses and chorus and stuff.so i am just gona put when they                     begging in respective to time the only effects you need is delay
              and if you have a johnson millenium. best preset would be 84,"too heavey"
              and another cool thing about this is for al the people who dont have seven 
	      strings can play it.eveen though tat why i bought mine.everything is inorder in
              contrast to the song so once you read something and play it it wont be played 
              again.i hope im not confusing you.so without furthur adue.i give you
                           "Parabola" by Tool
                              


legend.
          h=hammer on
          p=pulloff
          b=hit designated note and bend up .5 step
          br=hit designated note bend up .5 step then bend back down to original note
          brb=bend up .5 step then release to original note then bend back up.5 step.
          /=slide up
          \slide down
          x=mute string but still pluck
          ^=palm mute
          *=natural harmonic
 
play open E only at beggining
e---|-------------------|
b---|-------------------|
g---|-------------------|
d---|-------------------|- play 4x
E-0-|---------3p0-------|
B---|-3h5-5br-----3-3p0-|
[ Tab from: http://www.guitartabs.cc/tabs/t/tool/parabola_complete_tab.html ]
    with delay
-----------------------------------------------------------------------------------------------|
-----------------------------------------------------------------------------------------------|
-----------------------14h16-16-16-16--16--16-16\-------------------------14h16-14-14-14br-14\-|
-12h14--14-14-14-14-14----------------------------12h14-14-14-14-14-14-14----------------------|
-----------------------------------------------------------------------------------------------|
-----------------------------------------------------------------------------------------------|


(0:28)
-------------------------------------------------|
-------------------------------------------------|
-------------------------------------------------|
-x-x------x-x-----x-x------x-x---x-x---x-x-------|
-x-x------x-x-----x-x------x-x---x-x---x-x-10-10-|
-x-x------x-x-----x-x------x-x---x-x---x-x--8--8-|

(0:38)
------------------------------------------------------------------------------
------------------------------------------------------------------------------
------------------------------------------------------------------------------ onto next line|
------------------------------------------------------------------------------               |
-10-10-10-10-10-10-12--12-12-12-12-12-12-19-19-19-19-19-19-19--19-19-19-17-17-               |
--8--8--8--8--8--8-10--10-10-10-10-10-10-17-17-17-17-17-17-17--17-17-17-15-15-		     |
 											     |
------------------------------------------------------------------------------               |
------------------------------------------------------------------------------               |
------------------------------------------------------------------------------       
Comments