Tool - No Quarter Chords & Tabs

 

No Quarter Chords & Tabs

Tool Chords & Tabs

Version: 1 Type: Bass Tab 0 ratings
1 star 2 stars 3 stars 4 stars 5 stars
comments

No Quarter Bass Tab

   
Band- Tool
Song- No Quarter

Intro

Rest for 6 bars

* stop string
x mute string
h hammer-on
p pull-off
/ slide up
\ slide down

0:31
(with delay)
G  :------------7---9---10---9---5---|7---------------|----------------|
D  :---------------------------------|0---------------|----------------|
A  :---------------------------------|----------------|----------------|
D  :---------------------------------|----------------|----------------|

G  :----------------|------------7---9---10---12---17---|
D  :----------------|-----------------------------------|
A  :----------------|-----------------------------------|
D  :----------------|-----------------------------------|

G  :16---------------|------------7---9---10---9---5---|7---------------|
D  :-----------------|---------------------------------|0---------------|
A  :-----------------|---------------------------------|----------------|
D  :-----------------|---------------------------------|----------------|

Pre-Chorus
1:07
    delay off
G  :--------------------|------------------------------|
D  :--------------------|------------------------------|
A  :---------7-h8-------|7-h8--------------------------|
D  :8------8------8----8|-----8-8-8--8-7--7-\5-\5-\3-\3|

G  :--------------------|-----------------------|
D  :---------7-h8-------|7-h8---------8---8-----|
A  :6------6------6----6|-----6-6-6-6---6---6\--|
D  :--------------------|-----------------------|

Chorus
1:25
G  :--------------------------|-------------------------------|
D  :--------------------------|-------------------------3-p0--|
A  :3-h5-5-5-3-h5-5-5-3-h5-5-5|--------------------3-p0-------|
D  :--------------------------|3-h5-5-5-5-3-3-3-p0------------|

G  :---------------------------|---------------------------------|
D  :---------------------------|-------------------------3-p0----|
A  :3-h5-5-5-3-h5-5-5^-3-h5-5-5|--------------------3-p0---------|
D  :---------------------------|3-h5-5-5-5-3-3-3-p0--------------|

G  :--------------------------|---------------------------------|
D  :--------------------------|-------------------------3-p0----|
A  :3-h5-5-5-3-h5-5-5-3-h5-5-5|--------------------3-p0---------|
D  :--------------------------|3-h5-5-5-5-3-3-3-p0--------------|

G  :---------------------------|--------------------------------|
D  :---------------------------|-------------------------3--p0--|
A  :3-h5-5-5-3-h5-5-5^-3-h5-5-5|--------------------3-p0--------|
D  :---------------------------|3-h5-5-5-5-3-3-3-p0-------------|

Verse 2
2:00                 with delay
G  :----------------|------------7---9---10---9---5---|
D  :----------------|---------------------------------|
A  :----------------|---------------------------------|
D  :0---------------|---------------------------------|

G  :7---10-p9-7-h9-5-------|------------7---9---10---12---17---|
D  :0----------------0-5-7-|--0--------------------------------|
A  :-----------------------|3----------------------------------|
D  :-----------------------|-----------------------------------|

G  :16---------------|------------------|----------------|
D  :-----------------|------------------|0---------------|
A  :-----------------|------------------|----------------|
D  :-----------------|------------------|----------------|

G  :----------------10---9---12---10---9---12---10---9---|
D  :-----------------------------------------------------|
A  :-----------------------------------------------------|
D  :-----------------------------------------------------|

G  :7---------------|----10-p9-7-h9-5---5---|
D  :0---------------|-----------------7---7-|
A  :----------------|-----------------------|
D  :----------------|-----------------------|

G  :----17-------7---9---10---12---17---|16-----------------|
D  :0-----------------------------------|-------------------|
A  :------------------------------------|-------------------|
D  :------------------------------------|-------------------|

G  :----------------|
D  :----------------|
A  :----------------|
D  :----------------|

Pre-Chorus 2
3:01
    delay off
G  :--------------------|-------------------------------------------|
D  :--------------------|-------------------------------------------|
A  :---------7-h8-------|7-h8---------------------------------------|
D  :8------8------8----8|-----8-8-8--8-7--------\7--\7--\5--\5--\3--|

G  :---------------------|--------8---------------|
D  :---------7-h8--------|---7-h8-------8---8-----|
A  :6------6------6------|-6--------6-6---6---6\--|
D  :---------------------|------------------------|

Chorus 2
3:18
G  :--------------------------|-----------------------------------|
D  :--------------------------|---------------------------3-p0----|
A  :3-h5-5-5-3-h5-5-5-3-h5-5-5|----------------------3-p0---------|
D  :--------------------------|3-h5-5-5-5-3-3-3-3-p0--------------|

G  :---------------------------|---------------------------------|
D  :---------------------------|-------------------------3-p0----|
A  :3-h5-5-5-3-h5-5-5^-3-h5-5-5|--------------------3-p0---------|
D  :---------------------------|3-h5-5-5-5-3-3-3-p0--------------|

G  :--------------------------|---------------------------------|
D  :--------------------------|-------------------------3-p0----|
A  :3-h5-5-5-3-h5-5-5-3-h5-5-5|--------------------3-p0---------|
D  :--------------------------|3-h5-5-5-5-3-3-3-p0--------------|

G  :--------------------------|----------------------------------|
D  :--------------------------|---------------------------3--p0--|
A  :3-h5-5-5-3-h5-5-5-3-h5-5-5|----------------------3-p0--------|
D  :--------------------------|3-h5-5-5-5-3-3-3-3-p0-------------|

G  :----------------|
D  :----------------|
A  :----------------|
D  :0---------------|

Interlude
Rest for 8 bars
    4:34                
G  :12--\-------------|*------7---------|
D  :------------------|-----------------|
A  :------------------|-----------------|
D  :------------------|-----------------|

G  :*---------------|-----------------|----------------|
D  :----------------|-----------------|0---------------|
A  :----------------|-----------------|----------------|
D  :----------------|-----------------|----------------|

G  :-----------------|----------12--\---|*-----------------|
D  :*----------------|------------------|------------------|
A  :-----------------|------------------|------------------|
D  :-----------------|------------------|------------------|

5:10
    (with delay)
G  :------14---15---14---14-\-|*----7---7-/10-10-9-10-p9-7-|
D  :0-0-0--0-0--0-0--0-0--0--0|3-/5-5-5-5-/-8--------------|
A  :--------------------------|----------------------------|
D  :--------------------------|----------------------------|

G  :*-----14-14-15---14---14--|*----7---7-/10-10-9-10-p9-7-|
D  :0-0-0--0--0--0-0--0-0--0-0|3-/5---5-5-/-8--------------|
A  :--------------------------|----------------------------|
D  :--------------------------|----------------------------|

G  :*-----14---15---14---14--|*----7---7-/10-10--9-10-p9-7-|
D  :0-0-0--0-0--0-0--0-0--0-0|3-/5-5-5-5-/-8---------------|
A  :-------------------------|-----------------------------|
D  :-------------------------|-----------------------------|

G  :*-----14---15---14---14--|*----7----7-/10-10-9-10-p9-7--|
D  :0-0-0--0-0--0-0--0-0--0-0|3-/5----5-5-/-8---------------|
A  :-------------------------|------------------------------|
D  :-------------------------|------------------------------|

Acoustic guitar solo
5:46
G  :*-----14---15---14---14--|*----7---7-/10-10--9-10-p9-7-|
D  :0-0-0--0-0--0-0--0-0--0-0|3-/5---5-5-/-8---------------|
A  :-------------------------|-----------------------------|
D  :-------------------------|-----------------------------|

G  :*-----14---15---14---14--|*----7---7-/10-10-9-10-p9-7-|
D  :0-0-0--0-0--0-0--0-0--0-0|3-/5---5-5-/-8--------------|
A  :-------------------------|----------------------------|
D  :-------------------------|----------------------------|

G  :*-----14---15---14---14--|5-/7-----7-/10-10---9-10-p9-7-7|
D  :0-0-0--0-0--0-0--0-0--0-0|3-/5-5-5-5-/-8-----------------|
A  :-------------------------|-------------------------------|
D  :-------------------------|-------------------------------|
[ Tab from: http://www.guitartabs.cc/tabs/t/tool/no_quarter_btab.html ]
G  :*-------14-----15-----14------14--|*----7---7-/10-10-9-10-p9-7-|
D  :0---0-0--0---0--0---0--0---0---0-0|3-/5---5-5-/-8--------------|
A  :----------------------------------|----------------------------|
D  :----------------------------------|----------------------------|


6:21
G  :---------------------------------|-------------------------|
D  :---------------------------------|-------------------------|
A  :---------------------------------|-------------------------|
D  :10-/12-12-12-12-12-12-12-12--12-0|3-/5-5-5-5-/8-8-8-8-8-8-8|

G  :---------------------------------|-------------------------|
D  :---------------------------------|-------------------------|
A  :---------------------------------|-------------------------|
D  :10-/12-12-12-12-12-12-12-12--12-0|3-/5-5-5-5-/8-8-8-8-8-8-8|

G  :---------------------------------|-------------------------|
D  :---------------------------------|-------------------------|
A  :---------------------------------|-------------------------|
D  :10-/12-12-12-12-12-12-12-12--12-0|3-/5-5-5-5-/8-8-8-8-8-8-8|

G  :---------------------------------|--------------------------|
D  :---------------------------------|--------------------------|
A  :---------------------------------|--------------------------|
D  :10-/12-12-12-12-12-12-12-12--12-0|3-/5-5-5-5-/8-8-8--8-8-8-8|


6:55
G  :----------------------------------|-------------------------|
D  :----------------------------------|-------------------------|
A  :----------------------------------|-------------------------|
D  :10-/12-12-12-12-12-12-12--12--12-0|3-/5-5-5-5-/8-8-8-8-8-8-8|

G  :--------------------------------|---------------------|
D  :--------------------------------|---------------------|
A  :--------------------------------|---------------------|
D  :10-/12-12-12-12-12-12-12-12-12-0|3-/5-5-5-5-/8--------|

7:12
G  :-----------------------|-----------------------|
D  :----------------------3|----------------------3|
A  :--5-8-7-5-3-5-0-0-3-5--|--5-8-7-5-3-5-0-0-3-5--|
D  :0----------------------|0----------------------|

G  :-----------------------|----------------------------|
D  :----------------------3|-------------------------3--|
A  :--5-8-7-5-3-5-0-0-3-5--|--5-8-7-5-3-5-0-0--3--5-----|
D  :0----------------------|0---------------------------|

G  :-----------------------|------------------------|
D  :----------------------3|-----------------------3|
A  :--5-8-7-5-3-5-0-0-3-5--|--5-8-7-5-3-5-0--0-3-5--|
D  :0----------------------|0-----------------------|

G  :-----------------------|--------------------------------|
D  :----------------------3|-------------------------------3|
A  :--5-8-7-5-3-5-0-0-3-5--|--5-8-7-5-3-----5--0-----0-3-5--|
D  :0----------------------|0-------------------------------|

7:47
G  :-----------------------------|-------------------------------|
D  :-----------------------------|-------------------------------|
A  :-----------------------------|-------------------------------|
D  :0-0-0-0-0-0-0-0-0-0-0-0-0-0-0|0-0-0-0-0-0-0-0-0-0-0-0-0-0-0-0|

G  :----------------------------------|--------------------------------|
D  :----------------------------------|--------------------------------|
A  :----------------------------------|--------------------------------|
D  :0-0-0-0-0--0-0-0-0-0-0-0-0-0-0-0-0|0-0-0-0-0--0-0-0-0-0-0-0-0-0-0-0|

G  :--------------------------------|---------------------------------|
D  :--------------------------------|---------------------------------|
A  :--------------------------------|---------------------------------|
D  :0-0-0-0-0--0-0-0-0-0-0-0-0-0-0-0|0-0-0-0-0--0-0-0-0-0-0-0-0-0-0-0-|

8:12
G  :----------------------|---------------------------|
D  :----------------------|---------------------------|
A  :----------------------|---------------------------|
D  :0-0-0-0---0-10-7-5-3-0|0-0-0-0---0-10--7---5-3---0|

G  :----------------------|---------------------------|
D  :----------------------|---------------------------|
A  :----------------------|---------------------------|
D  :0-0-0-0---0-10-7-5-3-0|0-0-0-0---0-10--7---5-3---0|

G  :----------------------|---------------------------|
D  :----------------------|---------------------------|
A  :----------------------|---------------------------|
D  :0-0-0-0---0-10-7-5-3-0|0-0-0-0---0-10--7---5-3---0|

G  :----------------------|---------------------------|
D  :----------------------|---------------------------|
A  :----------------------|---------------------------|
D  :0-0-0-0---0-10-7-5-3-0|0-0-0-0---0-10--7---5-3---0|

G  :----------------------|
D  :----------------------|
A  :----------------------|
D  :0-0-0-0---0-10-7-5-3-0|

8:48
G  :--------------------|-------------------------------------------|
D  :--------------------|-------------------------------------------|
A  :---------7-h8-------|7-h8---------------------------------------|
D  :8------8------8----8|-----8-8-8----8--7--------\7--\7--\5-\5-\3-|

G  :---------------------|----------------------|
D  :----------7-h8-------|7-h8---------8---8----|
A  :6-------6------6----6|-----6-6-6-6---6---6--|
D  :---------------------|----------------------|

Chorus 3
9:05
G  :--------------------------|----------------------------------|
D  :--------------------------|-------------------------3--p0----|
A  :3-h5-5-5-3-h5-5-5-3-h5-5-5|--------------------3-p0----------|
D  :--------------------------|3-h5-5-5-5-3-3-3-p0---------------|

G  :--------------------------|----------------------------------|
D  :--------------------------|-------------------------3--p0----|
A  :3-h5-5-5-3-h5-5-5-3-h5-5-5|--------------------3-p0----------|
D  :--------------------------|3-h5-5-5-5-3-3-3-p0---------------|

G  :--------------------------|---------------------------------|
D  :--------------------------|------------------------3--p0----|
A  :3-h5*5-5-3-h5*5-5-3-h5-5-5|-------------------3-p0----------|
D  :--------------------------|3-5-5-5-5-3-3-3-p0---------------|
                                                             
G  :--------------------------|--------------------------------|
D  :--------------------------|------------------------3-p0----|
A  :3-h5*5-5-3-h5*5-5-3-h5-5-5|-------------------3-p0---------|
D  :--------------------------|3-5-5-5-5-3-3-3-p0-----------0-5|

9:39
G  :--------------------------|--------------------------|
D  :------------------3-p0----|------------------3-p0----|
A  :-------------3-p0---------|-------------3-p0---------|
D  :----5---3-p0-----------0-5|----5---3-p0-----------0-5|

G  :------------------------|
D  :-----------------0-3-0--|
A  :-------------0-3--------|
D  :------0--0-3------------|

Rest for 4 bars

Outro (7/8)
10:02
G  :---------------------------------|---------------------------------|
D  :----------3-p0-------------3-p0--|----------3-p0-------------3-p0--|
A  :-----3-p0-------------3-p0-------|-----3-p0-------------3-p0-------|
D  :3-p0-----------0-3-p0-----------0|3-p0-----------0-3-p0-----------0|

G  :---------------------------------|---------------------------------|
D  :----------3-p0-------------3-p0--|----------3-p0-------------3-p0--|
A  :-----3-p0-------------3-p0-------|-----3-p0-------------3-p0-------|
D  :3-p0-----------0-3-p0-----------0|3-p0-----------0-3-p0-----------0|

G  :---------------------------------|---------------------------------|
D  :---------------------------------|---------------------------------|
A  :3-p0-3-p0-3-p0-0-3-p0-3-p0-3-p0-0|3-p0-3-p0-3-p0-0-3-p0-3-p0-3-p0-0|
D  :---------------------------------|---------------------------------|

G  :-----13-10------13-10-|-----13-10------13-10-|
D  :--10---------10-------|--10---------10-------|
A  :8----------8----------|8----------8----------|
D  :----------------------|----------------------|

G  :---------------------------------|---------------------------------|
D  :----------3-p0-------------3-p0--|----------3-p0-------------3-p0--|
A  :-----3-p0-------------3-p0-------|-----3-p0-------------3-p0-------|
D  :3-p0-----------0-3-p0-----------0|3-p0-----------0-3-p0-----------0|

G  :---------------------------------|----------------------------|
D  :----------3-p0-------------3-p0--|----------3-p0--------------|
A  :-----3-p0-------------3-p0-------|-----3-p0-------------3-p0--|
D  :3-p0-----------0-3-p0-----------0|3-p0-----------0-3-p0------3|

G  :----------------|----------------|----------------|----------------|
D  :----------------|----------------|----------------|----------------|
A  :----------------|----------------|----------------|----------------|
D  :0---------------|----------------|----------------|----------------|
Comments