Tool - Message To Harry Manback Chords & Tabs

 

Message To Harry Manback Chords & Tabs

Tool Chords & Tabs

Version: 5 Type: Tab 0 ratings
1 star 2 stars 3 stars 4 stars 5 stars
comments

Message To Harry Manback Tab

Message to Harry Manback
Tool
Tuning: Drop D

   |   |   |   |   |   |   |   |   |   |   |   |   |   |    |   |   |   |
E|-----------------------------------------------------87------------|
B|-----7-8---7-8-7-----8-7---8-7-------7-8---7-8-7-------10-8-7------|
G|-9-------------------------------9----------------------------9-7--|
D|---9---------------------0---------9-------------------------------|
A|-7-------------------------------7------------------------0--------|
D|-----------------10------------------------------10----------------|

Repeat this for a while then play:
(these are the notes on the piano, a couple are impossible to reach
on the guitar but i put them here anyway, use octaves or something)
[ Tab from: http://www.guitartabs.cc/tabs/t/tool/message_to_harry_manback_tab_ver_5.html ]
   |   |   |   |   |   |   |   |   |   |   |   |   |   |   |   |
E|-------9-----9---10----9---------------9-----9---10----9---------|
B|-----9-----9-------------------------9-----9---------------------|
G|-4-------------------------------4-------------------------------|
D|-----------------------------------------------------------------|
A|-----------------------------------------------------------------|
D|-1---------------2---------------5---------------2---------------|

   |   |   |   |   |   |    |   |   |   |
E|-8-------------------98----------------|
B|-----------------------10-8-7----------|
G|------------------------------9-7-9----|
D|----------------------------------9----|
A|-0------------------------5-------7----|
D|-----------------9---------------------|
Comments