Tool - Message To Harry Manback Chords & Tabs

 

Message To Harry Manback Chords & Tabs

Tool Chords & Tabs

Version: 1 Type: Tab 0 ratings
1 star 2 stars 3 stars 4 stars 5 stars
comments

Message To Harry Manback Tab

Transcribed by
Steve Kim (ysp@psnw.com) 



--------------------------------------------------------------------------------


Message to Harry Manback
------------------------
Its an intermission song but its nice.
This song is actually played on piano but I've tabbed it out for guitar...



[ Tab from: http://www.guitartabs.cc/tabs/t/tool/message_to_harry_manback_tab.html ]
Standard Tuning
E:-----2-3---2-3------------------
B:-5-------------------8-7---8-7--
G:*--4-----------4-5--------------
D:*2------------------------------
A:-----------------3-------5------
E:--------------------------------
          Repeat 6x's
E:-----2-3---2-3-------8-7-5---------|
B:-5-------------------------8-7-5---|
G:---4-----------4-5---------------7*|
D:-2--------------------------------*|
A:-----------------3-----------------|
E:---------------------------5-------|
   |-------2x's-----|
E:-----7-----7-10-9----8---------8-7-5-----------||
B:-0-7-----7---------------------------8-7-5---5-||
G:-------------------------------------------7---||
D:-----------------------------------------------||
A:---------------------------2---------5---------||
E:-0-----------0-------8-----------------------0-||

Comments