Tool - Message To Harry Manback Chords & Tabs

 

Message To Harry Manback Chords & Tabs

Tool Chords & Tabs

Version: 2 Type: Bass Tab 0 ratings
1 star 2 stars 3 stars 4 stars 5 stars
comments

Message To Harry Manback Bass Tab

Artist: Tool
Song: "Message to Harry Manback"

This is the piano part (of course) to "Message to
Harry Manback" tabbed for the a regularly tuned four
string.
[ Tab from: http://www.guitartabs.cc/tabs/t/tool/message_to_harry_manback_btab_ver_2.html ]
G|---14-15--------15-14----15-14----15-14|
D|12-------15--15-------13-------15------|
A|---------------------------------------|
E|---------------------------------------|

G|---14-15--------15-14----15-14-12----15-14|
D|12-------15--15-------13----------15------|
A|------------------------------------------|
E|------------------------------------------|

This tab was submitted by Damon Henson, who will
take requests...at angelofdeath_214@yahoo.com...or suggestion/complaints.
Comments