Tool - Merkaba Chords & Tabs

 

Merkaba Chords & Tabs

Tool Chords & Tabs

Version: 2 Type: Tab 0 ratings
1 star 2 stars 3 stars 4 stars 5 stars
comments

Merkaba Tab

   
song-merkaba (live)
band-tool
cd-salival

drop D-DADGBE
you will need 2 guitars to get the right sound

guitar 1-played clean and bassy

e---------|
b---------|
g---------|
d---8-----|
a-----7---|
D-------0-|


play that figure over and over while guitar 2 does
[ Tab from: http://www.guitartabs.cc/tabs/t/tool/merkaba_tab_ver_2.html ]
e---5------5--------5-------6----|
b-6------5---5----6-------8----8-|
g--------------------------------|
d--------------------------------|
a--------------------------------|
D--------------------------------|

use delay, and distortion

chorus is

guitar 1 and 2

e----------------------------------------------|
b---------3---------2--------------------------|
g---------2---------2--------------------------|
d---------0---------0----------------------3-0-|
a-3/5-5-5-0-3/5-5-5-0--------------0-3-3-0-----|
D---------0---------0-3/5-5-5-5/3--------------|

those would be the main parts
Comments