Tool - Maynards Dick Chords & Tabs

 

Maynards Dick Chords & Tabs

Tool Chords & Tabs

Version: 1 Type: Bass Tab 0 ratings
1 star 2 stars 3 stars 4 stars 5 stars
comments

Maynards Dick Bass Tab

TOOL
Maynard's Dick - Bass Tab
from Salival
Tabbed by me, 
Gamaliel Colon (inbredhatred@cs.com) 



intro
G|--------------------|
D|----------------5---|
A|-----------5-7------|
E|----0-3h5-----------|


verse 1
G|----------------------------------------------|
D|------------5--5-4-5-4--------------------5---|
A|----7---7-7--------------5-----------5-7------|
E|------------------------------0-3h5-----------|


verse 2
G|-----------------------------------9-----------|
D|------------5--5-4-5-4-5--------------7--5-5---|
A|----7---7-7---------------5------7-------------|
E|-------------------------------0---------------|


verse 3
G|-------------------------------------------------|
D|------------5--5-4-5-4-----------------5-7-7-7---|
A|----7---7-7--------------5-----------------------|
E|------------------------------0-3-3-3------------|


chorus 1                                                           
G|--------------------------------------------------------------|
D|---------------------------------------------5-4--------------|
A|------------------------------0-7--5-7--5-7------5--5-3-------|
E|----3--3-3-3--3-3-3--3-3-3--3---------------------------5-0---|


chorus 2                                                    
G|--------------------------------------------------------|
D|--------------------------------------------------------|
A|--------------------------------------------------------|
E|----3--3-3-3--3-3-3--3-3-3--3-3-5--5-5--5-5--5-3--3-0---|

[ Tab from: http://www.guitartabs.cc/tabs/t/tool/maynards_dick_btab.html ]
verse 4                                                       
G|------------------------------------------------------------------|
D|-----------------5-4-5-4-5-4-5-4--------------------------5-7-7---|
A|----7--7-7-7-7-5------------------5-5-5-5--5--5-------------------|
D|------------------------------------------------0h3h5-5-5---------|


chorus 3                                                 
G|--------------------------------------------------------|
D|--------------------------------------------------------|
A|--------------------------------------------------------|
E|----3--3-3-3--3-3-3--3-3-3--3-3-5--5-5--5-5--5-3--5-3---|


interlude 1                    
G|---------------------|
D|---------------------|
A|-------------3h5-7---|
E|----0--0-3h5---------|


interlude 2                    
G|---------------------|
D|---------------------|
A|-------------3h5-7---|
E|----5--5-3h5---------|


chorus 4                                                               
G|---------------------------------------------------------------------|
D|---------------------------------------------------------------------|
A|---------------------------------------------------------------------|
E|----3--3-3-3--3-3-3--3-3-3--3-3-5--5-5--5-5--5-3--5-3--5-3--5-3--0---|



intro x1
verse1 x1
verse2 x1
verse1 x1
verse2 x1
verse3 x1
verse2 x1
chorus1 x3
chorus2 x1
verse1 x1
verse2 x1
verse4 x2
chorus1 x3
chorus3 x1
interlude1 x8
interlude2 x12
chorus1 x3
chorus4 x1
adlib ending
Comments