Tool - Lateralus Chords & Tabs

 

Lateralus Chords & Tabs

Tool Chords & Tabs

Version: 3 Type: Tab 1 rating
1 star 2 stars 3 stars 4 stars 5 stars
comments

Lateralus Tab

   
dropped d tuning as usual nothing different....
Song:Lateralus
Album:Lateralus
Artist:Tool


d----------------0----------------------------------
a---------------------------------------------------
d-7-5-7-10-7-5-5--7-5-7-----------------------------
g---------------------------------------------------
b---------------------------------------------------
e---------------------------------------------------

clean.. play the second d twice without the 1st then on the 3rd time add it**
then play that 3 times so all together play the 1st riff six times
-------------------------------------------------------------------------------
[ Tab from: http://www.guitartabs.cc/tabs/t/tool/lateralus_tab_ver_3.html ]
d-0-0-x-0-0-x-0-5-5-5-0-3-3-0-3-0-3-3-3-5-5-5-310-12
a-0-0-x-0-0-x-0-5-5-5-0-3-3-0-3-0-3-3-3-5-5-5-310-12
d-0-0-x-0-0-x-0-5-5-5-0-3-3-0-3-0-3-3-3-5-5-5-310-12
g----------------------------------------------------
b----------------------------------------------------
e----------------------------------------------------

**Play this riff 2wice on the 3rd play this instead of 10-12
--------------------------------------------------------------------------------
d----------------------------------------------------
a----------------------------------------------------
d-3-5-3-0--------------------------------------------
g----------------------------------------------------
b----------------------------------------------------
e----------------------------------------------------

well thats all i have maybee when i have time ill tab the rest check out my site
http://www.angelfire.com/rock3/toolmaker  or e-mail me
jeffman345@msn.com
Comments