Tool - Lateralis Chords & Tabs

 

Lateralis Chords & Tabs

Tool Chords & Tabs

Version: 3 Type: Tab 1 rating
1 star 2 stars 3 stars 4 stars 5 stars
comments

Lateralis Tab

Lateralis by Tool
From the CD Lateralus
Email: Gullible@angelfire.com

Sorry about the mess this is my first tab.




Clean Guitar                         2x
E  :--------------------|-----------*|||*--------|----------------|
B  :--------------1-----|-----------*|||*--------|----------------|
G  :---2--0-h2-p0----2~-|-2-0-h2-0-- ||| ---2----|------2---------|
D  :--------------------|----------0 ||| --------|----------------|
A  :--------------------|----------- ||| --------|----------------|
D  :0-------------------|----------- ||| 5-------|---3-----------0|
 Distortion Guitar                    2x
E  :--------------------|-----------*|||*--------|----------------|
B  :--------------------|-----------*|||*--------|----------------|
G  :--------------------|----------- ||| --------|----------------|
D  :--------------------|----------- ||| --------|----------------|
A  :--------------------|----------- ||| --------|----------------|
D  :--------------------|----------- ||| --------|----------------|

=============================================================================
[ Tab from: http://www.guitartabs.cc/tabs/t/tool/lateralis_tab_ver_3.html ]
E  :--------------------|---------*||---------|-----------|*-----|
B  :-------------1------|---------*||---------|-----------|*-----|
G  :--2--0-h2-p0----2~--|-0-h2-0-- ||---2-----|------2----| -----|
D  :--------------------|--------0 ||---------|-----------| -----|
A  :--------------------|--------- ||---------|-----------| -----|
D  :--------------------|--------- ||5--------|---3-------| -----|

E  :--------------------|---------*3|---------|-----------|*-----|
B  :--------------------|---------*||---------|-----------|*-----|
G  :--------------------|--------- ||---------|-----------| -----|
D  :--------------------|--------- ||---------|-----------| 0--0-|
A  :--------------------|--------- ||---------|-----------| 0--0-|
D  :--------------------|--------- ||---------|-----------| 0--0-|

=============================================================================

E  :----------------------|-------------------------|----------------*2|
B  :----------------------|-------------------------|----------------*||
G  :----------------------|-------------------------|---------------- ||
D  :----------------------|-------------------------|---------------- ||
A  :----------------------|-------------------------|---------------- ||
D  :----------------------|-------------------------|---------------- ||

E  :----------------------|-------------------------|----------------*2|
B  :----------------------|-------------------------|----------------*||
G  :----------------------|-------------------------|---------------- ||
D  :-0--0--0-5-5-5-5-2-3--|3-x3--3*3-/5-5-5-5-3-3-/5|5-5-5-5-3-10-12- ||
A  :-0--0--0-5-5-5-5-2-3--|3-x3--3*3-/5-5-5-5-3-3-/5|5-5-5-5-3-10-12- ||
D  :x0--0-x0-5-5-5-5-2-3--|3-x3--3*3-/5-5-5-5-3-3-/5|5-5-5-5-3-10-12- ||

Comments