Tool - Jimmy Chords & Tabs

 

Jimmy Chords & Tabs

Tool Chords & Tabs

Version: 1 Type: Tab 0 ratings
1 star 2 stars 3 stars 4 stars 5 stars
comments

Jimmy Tab

Band: Tool
Song: Jimmmy
tabbed by: Jamie Stevens...Sexpistol190@hotmail.com its all rough some parts might be wrong email me with the right ones if possible
e---------------------------------
b---------------------------------
g---------------------------------
d---------------------------------
a---------------------------------
d--12-0-0-3-12-0-0-5-12-0-0-1/10--

e-----------------------------------------
b-----------------------------------------
g-----------------------------------------
d--0---h------10------12--------------
a--0---h--12-------12-----------------
d--0---h--------(12)--------13-15-12--

e------------------------------
b------------------------------
g------------------------------
d--0---------------------------
a--0--------------12-----------
d--0----13-15-12--12--1//////--

e-----------------
b-----------------
g-----------------
d-----------------
a-----------------
d--0-10-12-0-12b--

e---------------------------------
b---------------------------------
g---------------------------------
d---------pm----------------------
a---------------------------------
d--12-0-0-3-12-0-0-5-12-0-0-1/10--

e-----------------------------------------------
b-----------------------------------------------
g-----------------------------------------------
d-----------------------------------------------
a-----------------------------------------------
d--12-15-12-10-12--12-15-12-10-12--12-15-12-10--
[ Tab from: http://www.guitartabs.cc/tabs/t/tool/jimmy_tab.html ]
e---------------------------------
b---------------------------------
g---------------------------------
d--12-0-0-3-12-0-0-5-12-0-0-1/10--
a--12-0-0-3-12-0-0-5-12-0-0-1/10--
d--12-0-0-3-12-0-0-5-12-0-0-1/10--

e-----BEND!--
b--15--------
g--14--------
d--12--------
a--12--------
d--12--------

e---------------------------
b---------------------------
g---------------------------
d--12--7--1010--0-8p7--5//--
a--12--7--1010--0-8p7--5//--
d--12--7--1010--0-8p7--5//--
bass is dominant
e--------------------------
b--------------------------
g--------------------------
d--------------------------
a--------------------------
d--10-1212-0-10-0-10-0-12--
rest
e-----------------
b-----------------
g-----------------
d-----------------
a-----------------
d--0-10-12-0-12b--

rest

e-----------------
b-----------------
g-----------------
d-----------------
a-----------------
d--0-10-12-0-12b--

e---------------------------------
b---------------------------------
g---------------------------------
d--12-0-0-3-12-0-0-5-12-0-0-1/10--
a--12-0-0-3-12-0-0-5-12-0-0-1/10--
d--12-0-0-3-12-0-0-5-12-0-0-1/10--

e---------------------------
b--------------------------
e--------------------------
b--0-----8-----5-----3///--
e--0-----8-----5-----3///--
b--0-----8-----5-----3///--

e---------------------------------
b---------------------------------
g---------------------------------
d--12-0-0-3-12-0-0-5-12-0-0-1/10--
a--12-0-0-3-12-0-0-5-12-0-0-1/10--
d--12-0-0-3-12-0-0-5-12-0-0-1/10--

e------------------------------
b------------------------------
g------------------------------
d--12-0-0-3-12-0-0-5-12-0-0-1--
a--12-0-0-3-12-0-0-5-12-0-0-1--
d--12-0-0-3-12-0-0-5-12-0-0-1--
Comments