Tool - Jerk Off Chords & Tabs

 

Jerk Off Chords & Tabs

Tool Chords & Tabs

Version: 1 Type: Bass Tab 0 ratings
1 star 2 stars 3 stars 4 stars 5 stars
comments

Jerk Off Bass Tab

Band- Tool
Song- Jerk Off

Drop D tuning.

Intro                Rift 1
|------9\-----12\-|------------------------------| Play this a
|-----------------|*----------------------------*| bunch of times
|-----------------|*----7---8--7---7---7-8------*|
|--8\7----8\7-----|--(7)--7------7---7------8-7--|

Riff 1 (or play it like this if you like)
|-----------------------------| Play this a bunch
|*----2---3--2---2---3-2-----*| of times too.
|*-(0)--0------0---0-----1-0-*|
|-----------------------------|

Riff 2                         (?X) Riff 3                  (?X)
|--------------------------------|-|--------------------------|
|*------------------------------*|-|*------------------------*|
|*-(0)--0-0-0--0-0--0-0-0--1-0--*|-|*--------5---5---5-------*|
|--------------------------------|-|--0--0-0---0---0---5^3-3--|

Riff 4
|-------------------------------------------------|
|*-----------------------------------------------*|
|*-----------------------------------------------*|
|--(5)--5-5-5-5--5-5-5-5--5-5-5-5--7-7-7-7--3--5--|

Riff 5
|-------------------------------| Play rifts 1, 2, 3,
|*-----------------------------*| 4 and 5 again.  Then
|*-----------------------------*| play this:
|--5--3-5--3-5--0-8\-0-3-3-3-3--|
[ Tab from: http://www.guitartabs.cc/tabs/t/tool/jerk_off_btab.html ]
Play this now.
|---------------------------------------------------------------------|
|---2---3--2---2---3-2------------------------------------------------|
|-0---0------0---0----------------------------------------------------|
|----------------------3-2--2-2-2-2-2-2-2-2-2-2-4-3-3-3-3-3-3-3-3-3-3-|

(cont.)
|-----------------------------------------------------------------------|
|-----------------------------------------------------------------------|
|-----------------------------------------------------------------------|
|-4-2-2-2-2-2-2-2-2-2-2-6-5-5-5-5-5-5-5-5-5-5-6-5-5-5-5-5-5-5-5-5-5-6-6-|

(cont.)                                                 (6X)
|-----|--5-5-5--5-5-5-5--7-7-7--8-!-8-8-8--8-8-8-8--7-7-7--| Play rift 5
|-----|*-5-5-5--5-5-5-5--7-7-7--5-!-5-5-5--5-5-5-5--7-7-7-*| four times
|-1-3-|*-3-3-3--3-3-3-3--5-5-5--6-!-6-6-6--6-6-6-6--5-5-5-*| and then:
|-----|---------------------------!------------------------|
                                   !End here 6th
                                   !time around.

Riff 7
|-------------------------------------| After this play
|*-----------------------------------*| rift 5 again and
|*-----------------------------------*| then finish with:
|--5-5-5-8-8-8-3-3-3-0-0-0-0-3/5-5^7--|

Outro
|----------------------------|
|----------------------------|
|----------------------------|
|--5--3-5--3-5--3-5-3-5-5-5--|
Comments