Tool - Intolerance Chords & Tabs

 

Intolerance Chords & Tabs

Tool Chords & Tabs

Version: 3 Type: Tab 0 ratings
1 star 2 stars 3 stars 4 stars 5 stars
comments

Intolerance Tab

   Rhythm Fig 1                    1,2,3  4(Go to Rhythm Fig 2)
E---------------------------------|------|
G---------------------------------|------|
D--0-3-5-6-5-0-3-0-10\3/5-6-5-0-3-|----0-|
A--0-3-5-6-5-0-3-0-10\3/5-6-5-0-3-|----0-|
D--0-3-5-6-5-0-3-0-10\3/5-6-5-0-3-|----0-|


   Rhythm Fig 2
E-----------------------------|
B-----------------------------|
G-----------------------------|
D--0-3-0-3-0-1-0-3-0-1-0-1----|
A--0-3-0-3-0-1-0-3-0-1-0-1-3B-|
D--0-3-0-3-0-1-0-3-0-1-0-1----|

Play Fig 2 twice

E----------------------------------------------|
B----------------------------------------------|
G----------------------------------------------|
D----------------------------------------------|
A--5---5-6-5---5---5-6-3-5---5-6-5---5---5-6B/-|
D----3-------3---3---------3-------3---3-------|
  most of these are at least semi-arficial harmonics

Play Fig 2 twice for the first "lie cheat and steal"s then

E---------------------------------------------|
B---------------------------------------------|
G---------------------------------------------|
D--0-0-XXXX-0-0-XXXX-0-0-XXXX-0--0--0--0-//10-|
A--0-0-XXXX-0-0-XXXX-0-0-XXXX-0--0--0--0-//10-|
D--0-0-XXXX-0-0-XXXX-0-0-XXXX-0--0--0--0-//10-|
                              these last four D's are on the quarter notes
                              and are heavily palm muted.


    Rhythm Fig 3          1,2,3     4(continued below)
E-----------------------|----------|
B-----------------------|----------|
G-----------------------|----------|
D--10-0-0-0-0000-10-0-0-|--0-0-1/3-|
A--10-0-0-0-0000-10-0-0-|--0-0-1/3-|
D--10-0-0-0-0000-10-0-0-|--0-0-1/3-|


E-------|
B-------|
G-------|
D--0----|
A--0-3B-|
D--0----|

Play Fig 1 once then


E------------------------------|
B------------------------------|
G------------------------------|
D--0-3-0-3-0-1-0-3-0-1-0-1-----|
A--0-3-0-3-0-1-0-3-0-1-0-1-3/5-|
D--0-3-0-3-0-1-0-3-0-1-0-1-----|

let the last D feed back until "Lie"

This next part will be difficult to write strictly in TAB because
of the odd rhythms I hope you can hear what I can't notate.


E----------------------------------------------------------------|
B----------------------------------------------------------------|
G----------------------------------------------------------------|
D--0-XX-XX-0-XX-XX-XX-0-XX-XX-0-XX-XX-----------XX-XX-0-XX-XX-XX-|
A--0-XX-XX-0-XX-XX-XX-0-XX-XX-0-XX-XX-3H5-3H5---XX-XX-0-XX-XX-XX-|
D--0-XX-XX-0-XX-XX-XX-0-XX-XX-0-XX-XX---------0-XX-XX-0-XX-XX-XX-|
                                                                Cont.
below
[ Tab from: http://www.guitartabs.cc/tabs/t/tool/intolerance_tab_ver_3.html ]
                          Fill 1  1,2,3    4
E-------------------------|-----|---------|---------------------------|
B-------------------------|--3--|-3---3---|--15-15-15-15-15-15-15-15\-|
G-------------------------|--2--|---2---2-|--14-14-14-14-14-14-14-14\-|
D--0-XX-XX-0-XX-XX--------|--0--|---------|--0------------------------|
A--0-XX-XX-0-XX-XX-3H5-5*-|--0--|---------|--0------------------------|
D--0-XX-XX-0-XX-XX--------|--0--|---------|--0------------------------|
  *This guitar continues to feed back on D while another guitar plays
  Fig 3.  This guitar plays Fill 1 over Fig 3 four times. Fig 3 btw, is
  played with the first ending all times.

                      1,2,3  4(Fig 1)
E--------------------|-----|
B--------------------|-----|
G--------------------|-----|
D--------------------|--0--|
A--3---3---3-------0-|--0--|
D----5---5---5-3p0-0-|--0--|

Fig 1 is played twice then another guitar plays


E----------------------------------------------------------------|
B----------------------------------------------------------------|
G----------------------------------------------------------------|
D----------------------------------------------------------------|
A--0-3-5-6-5-0-3-0-5-3-5-6-5-0-3-0-3-5-6-5-0-3-0-5-3-5-6-5-0-3-5-|
D----------------------------------------------------------------|
  These are also mostly artificial harmonics.
  There are several measures of feedback and noises, pick-scrapes etc.

"Toleraaaaaaaaaaaaaaaaate" :)

E------------------------|
B------------------------|
G------------------------|
D------------------------|
A--XX-XXX-XXX-XXXXX-//10-|
D--XX-XXX-XXX-XXXXX-//10-|
  Then Fig 3 is played about one and a half times then play Fill 2.

  Fill 2
E------------------|
B------------------|
G--5/7-7BR-------0-|
D----------7SB-7p0-|
A----------------0-|
D------------------|
  the guitar playing Fill 2 feeds back durring the first run-through of
  fig 3. after Fill 2 just make some noise or as the guitar mags say "ad
lib" :)

btw, BR is Bend and Release and P is pull-off.

E----------------------|
B----------------------|
G----------------------|
D--------------------0-|
A--3---3---3-------0-0-|
D----5---5---5-3p0-0-0-|
  Play this 8 times then another guitar joins with


E----------------------|
B--------------------3-|
G--5p0-5p0-5p0-------2-|
D--------------3p0-0-0-|
A--------------------0-|
D----------------------|
  play these two four times.


E------------------------------------------------------------------|
B------------------------------------------------------------------|
G--------------------5---------------------------------------------|
D----5-------------------------------------------------------------|
A--3---3-5-6-5-3-5-3---3-5-6-5-3-5---------------------------------|
D------------------------------------------------------------------|

  these are all artifical harmonics. this is played twice.  the above may
be incorrect... i originally thought it was natural harmonics, but after
listening to the live tracks on the singles, i'm positive about the
artifical harms. BUT, i'm not sure of the second note in each bar.  (i
guess that means, "revision to come soon")

                             4x
E--------------------------------|------|
B--------------------------------|------|
G-------------------------------.|------|
D--00-10-10-10-10-12-13-12-0-10-.|--12--|
A--00-10-10-10-10-12-13-12-0-10--|--12--|
D--00-10-10-10-10-12-13-12-0-10--|--12--|
Comments