Tool - Intermission Chords & Tabs

 

Intermission Chords & Tabs

Tool Chords & Tabs

Version: 1 Type: Tab 0 ratings
1 star 2 stars 3 stars 4 stars 5 stars
comments

Intermission Tab

Band- Tool
Song- Intermission

intro (slow)

e--10-----------10-----------10---------8--|
b------------------------------------------|
g------7--7-10------7--7-12------7--7-8----| x1
d------------------------------------------|
a------------------------------------------|
d------------------------------------------|

(faster)

e--10-----------10-----------10---------8--|
b------------------------------------------|
g------7--7-10------7--7-12------7--7-8----| x2
d------------------------------------------|
a------------------------------------------|
d------------------------------------------|

e-------------------------|----------------------------|
b--8/10-8--6-8--8/10-8----|--8/10-8--6-8--10-11-10-8---|
g-------------------------|----------------------------|
d-------------------------|----------------------------|
a-------------------------|----------------------------|
d-------------------------|----------------------------|
[ Tab from: http://www.guitartabs.cc/tabs/t/tool/intermission_tab.html ]
e-------------------------|-------------------------------|
b--8/10-8--6-8--8/10-8----|--8/10-8--6-8--10-11-13-11-10--|
g-------------------------|-------------------------------|
d-------------------------|-------------------------------|
a-------------------------|-------------------------------|
d-------------------------|-------------------------------|

e--10-10-8--|----------------|--10-10-8--|-----------------|
b--10-10-8--|----------------|--10-10-8--|-----------------|
g--10-10-8--|--crazy stuff---|--10-10-8--|-----------------|
d-----------|----------------|-----------|--un-tabbed-yet--|
a-----------|----------------|-----------|-----------------|
d-----------|----------------|-----------|-----------------|

e--10-10-8--|------------------------|--10-10-8--|-----------------|
b--10-10-8--|------------------------|--10-10-8--|-----------------|
g--10-10-8--|------------------------|--10-10-8--|-----------------|
d-----------|------------------------|-----------|-----------------|
a-----------|--you-know-you-want-it--|-----------|-----------------|
d-----------|------------------------|-----------|--you'll-get-it--|

e--10-----------10-----------10---------8--|
b------------------------------------------|
g------7--7-10------7--7-12------7--7-8----| x2
d------------------------------------------|
a------------------------------------------|
d------------------------------------------|
Comments