Tool - Hooker With A Penis Chords & Tabs

 

Hooker With A Penis Chords & Tabs

Tool Chords & Tabs

Version: 1 Type: Bass Tab 0 ratings
1 star 2 stars 3 stars 4 stars 5 stars
comments

Hooker With A Penis Bass Tab

Artist: Tool
Song: Hooker With A Penis
Tabbed by: Tobes  (flipsta101@hotmail.com)

*Notes*
This song is in dropped D tuning (as with most of Tool's songs), and uses a bit of a
grunge-distortion effect during the wicked little bass interlude. Play with fingerstyle -
you want a round, angry tone on this one. Enjoy.



Intro - no bass until 0:16		x4
G----------------------------------------
D----------------------------------------
A-3h5-5-3h5-5-3h5-5-3h5-5--3-3-(3)-------
D----------------------------------------

Fill					x4
G----------------------------------------
D-------3----------3---------------------
A-3-4-5----x-3-4-5----3-3-3-3------------
D----------------------------------------

Verse					x4
G-----------------------------------------
D-----------------------------------------
A-----------------------------------------
D--3-0-0-3---3-0-0-3---3-0-0-3---3-0-0-3--

Intro x4

Verse x2

Going into chorus											x2
G----------------------------------------------------------------------------
D----------------------------------------------------------------------------
A----------------------------------------------------------------------------
D-3-0-0-0-0-0-0-0-0-3-0-0-0-0-0-0-0-0-3-0-0-0-0-0-0-0-0-3-0-0-0-(3)-0-0-0-0--

Chorus
G--------------------------------------------------|-----------------------------------------
D--------------------------------------------------|-----------------------------------------
A-3-3---------------------------------3h5-5-3h5-5--|-(x)3-3----------------------------------
D-----5-5-3p0-0-0-(0)-3-3-5-5-3p0-0-0--------------|--------(x)5-5-3p0-0-0-(0)-3-3-5-5-3p0---

G----------------------------------
D*--------------------------------*
A*--------------------------------*
D--0-0-0-0-3p0-0-0-0-0-3p0-0-0-0---

[ Tab from: http://www.guitartabs.cc/tabs/t/tool/hooker_with_a_penis_btab.html ]
Bass interlude
G----------------------------------------------------
D*---------------------------------------------------
A*---------------------------------------------------
D--3p0-0-3-x-x--10-10-10-9/---3p0-0-0-0-0--7-7-7-6\--

G----------------------------------------------------
D---------------------------------------------------*
A---------------------------------------------------*
D-3p0-0-0-0-0--10-10-10-9/---3p0-0-0-0-0--7-7-7-6\---


Resuming chorus
G------------------------------------------------------------------------------------------
D------------------------------------------------------------------------------------------
A------------------------------------------------------------------------------------------
D-3-0-0-0-0-0-0-0-0--3-0-0-0-0-0-0-0-0--3-0-0-0-0--3-0-0-0-0--3-0-0-0-0--3-0-0-0-0---------

Chorus x1 except 3rd bar

Going into bridge		   x4
G------------------------------------|---------|
D*----------------------------------*|---------|
A*----------------------------------*|-5--(5)--|
D--0-0-0-3--5-5-5-3--0-0-0-3--6-6-5--|---------|


Bridge
G-------------------------------------------------
D*-----------------------------------------------*
A*---------------------------------------3h5-3h5-*
D-7-7-0--7-6-6-6-0--6-5-5-5-0--5-3-3-3-0----------

G------------|------------------------------------------|---------|---------------------
D------------|------------------------------------------|--Pause--|*--------------------
A-----5-3h5--|------------------------------------------|---------|*--------------------
D-(0)--------|-7-7-0--7-6-6-6-0--6-3-0-0--5-0-0--6-0-0--|---------|--3-0-0-0-5-0-0-6-6--

                   x4     		              x6
G--------------------|-----------------------------------|-------
D-------------------*|*---------------------------------*|-------
A-------------------*|*---------------------------------*|------- 
Comments