Tool - H Chords & Tabs

 

H Chords & Tabs

Tool Chords & Tabs

Version: 3 Type: Tab 0 ratings
1 star 2 stars 3 stars 4 stars 5 stars
comments

H Tab

I was kind of surprised no one had tabbed "H" for guitar. Personally, it's one of my 
favorite Tool songs, and all around one of my favorite songs period. Anyway, I'm not 
going to name effects or anything, and the intro's more likely then not bass, but if 
your guitar's distorted enough, it sounds perfect. I tabbed all but the breakdown. And 
if anyone knows it, I'd appreciate if they sent it to me. Any comments or additions? 
Send them to DreamWthnADreamX@aol.com or IM me. Later

A-----0---------0------------0---------0---------
D--0-----3~--0-----3--5~--0-----3~--0-----0--5~--
[ Tab from: http://www.guitartabs.cc/tabs/t/tool/h_tab_ver_3.html ]
B--3----3---x-x-3----3--
G--2----2---x-x-2----2--
D--0----0---x-x-0----0--
A--0----0---x-x-0----0--
D--0----0---x-x-0----0--

G---------5-----5h7p5-------------5-5-5/4-0--
D----7-------7--------7-----7----------------
A------8----------------------8--------------
D--0----------------------0------------------

D--7~---7--5--7/8-7~--7--5------------------5----
A---------------------------7--5----3h5p3-3---3--

D----7----5---------
A------8----7--3-5--
D--0----------------
pm-----------------|

D-----7-----5------7-----5----7-----
A-------8---5--------8---5--5---8~--
D--0--------5---0--------5----------
pm-------|    |--------|

D--0--7-3--5~---0--7-3--5--5--0--7-3--5--
A--0--7-3--5~---0--7-3--5--5--0--7-3--5--
D--0--7-3--5~---0--7-3--5--5--0--7-3--5--

(high)D--7~---7--5---7--5---0-3~--
Comments