Tool - Grudge Chords & Tabs

 

Grudge Chords & Tabs

Tool Chords & Tabs

Version: 2 Type: Tab 0 ratings
1 star 2 stars 3 stars 4 stars 5 stars
comments

Grudge Tab

Author/Artist: Tool
Title: The grudge
Album: Lateralus
Transcribed by: §even§oul§
Email: RApfeltor@aol.com 

tool tuning:
DADGBE


Riff #1
----------------
----------------
----------------
----------------
----------------
-0h1p0--0--0h1p0
 p.m.___________  


Riff #2
-------------------
-------------------
-------------------
-------------------
--------5----------
-0h1p0-----0h1p0--3
p.m._______________      


Riff #1
----------------
----------------
----------------
----------------
----------------
-0h1p0--0--0h1p0
 p.m.___________  


Riff # 3 Wear your grudge like a crown of negativity.
-------------------
-------------------
-------------------
-------------------
-------------------
-0-0-0-00--0-00--00
p.m._______________  


Riff #4
------------------------10-10-10
-3--3--3--3--3--3--3--3-10-10-10
-2--2--2--2--2--2--2--2--7--7--7
-0--0--0--0--0--0--0--0--0--0--0
-0--0--0--0--0--0--0--0--0--0--0
-0--0--0--0--0--0--0--0--0--0--0


Riff #5
---------
---------
---------
---------
---------
-0-0-0-00
p.m._____  


Riff # 6 Clutch it like a cornerstone. Otherwise it all comes down.
------------------
------------------
------------------
------------------
------------------
-0-0-xx0-x0-00-x00
p.m.______________ 


Riff #7
-----------------------------------------------------
-----------------------------------------------------
-----------------------------------------------------
-----------------------------------------------------
--------------12----------------12--10-----------5b
-12h13p12-------12h13p12-----------------------


Riff #8 Clutch it like a cornerstone. Otherwise it all comes down!
-----------------------------
-----------------------------
-7--------10--------5-------
-7--0-0---10--0-0-- 5-xx--3
-5--0-0----8--0-0---3-xx--3
----0-0-------0-0-----xx--3
   p.m        p.m            


Riff #9 Saturn ascends, the one, the ten. Ignorant to the damage 
done.
-------------------------
-------------------------
-7-------5------7------8
-7-------5------7------8
-5-------3------5------6
---xxxx----xxxx---xx--


Riff #9 continued
----------------------------------------
----------------------------------------
-7-------5-------5/--7-7/-8------5/-7
-7-------5-------5/--7-7/-8------5/-7
-5-------3-------3/--5-5/-6------3/-5
---xxxx----xxxx-------------xxxx-----


continued Riff #9
------------------
------------------
-5------7-----8--5
-5------7-----8--5
-3------5-----6--3
---xxxx---xxx-----


Riff #10
---------------------
---------------------
---------------------
-0-0-0-00--0-00-00
-0-0-0-00--0-00-00
-0-0-0-00--0-00-00


Riff # 11 Wear your grudge like a crown of negativity.
-------------------------------
-------------------------------
--------------------------------
----------0-0-0-00--0-00-00
-3p0----5-0-0-0-00--0-00-00
------3---0-0-0-00--0-00-00


Riff #12 Defining,

-----------------------
-----------------------
--------------------5-5
-----------00-0-----5-5
-3p0----5--00-0-----3-3
------3----00-0---------

[ Tab from: http://www.guitartabs.cc/tabs/t/tool/grudge_tab_ver_2.html ]
Riff #13 confining
-----------------------
-----------------------
-----------------------
-----------00-0-----5-5
-3p0----5--00-0-----5-5
------3----00-0-----5-5


Riff #14 sinking deeper
-------------------------------
-------------------------------
-----------00-0-----3-3-----3-3
-3p0----5--00-0-----1-1-xx--3-3
------3----00-0---------xx--3-3


Riff #15
---------------------------
---------------------------
---------------------------
---------------------------
-------------3p0----5-----
-0-0-0-3-5-------3----00-0


Riff #16
------------------
-3----3----3----3
-2----2----2----2
-0----0----0----0
-0----0----0----0
-0----0----0----0


Riff #17
-----------------------------
-----------------------------
-----------------------------
-----------------------------
----3--------------3--5-----
-0-----5--3h5--0--------3h5


Riff #18
--------------------------------------------------------
--------------------------------------------------------
--------------------------------------------------------
--------------------------------------------------------
-3-5-6--5--3-5-6--5/8\--3-5-6-5-5*6--3-5-6--5/8\
--------------------------------------------------------


Riff #18 continued
--------
--------3
--------2
--------0
-3-5----0
--------0


Riff #17 Give away the stone........
----------------------------
-----------------------------
-----------------------------
----3--------------3-5------
-0-----5--3h5--0-------3h5




Riff #4
------------------------10-10-10
-3--3--3--3--3--3--3--3-10-10-10
-2--2--2--2--2--2--2--2--7--7--7
-0--0--0--0--0--0--0--0--0--0--0
-0--0--0--0--0--0--0--0--0--0--0
-0--0--0--0--0--0--0--0--0--0--0


Riff #1
----------------
----------------
----------------
----------------
----------------
-0h1p0--0--0h1p0
 p.m.___________  


Riff #2
-------------------
-------------------
-------------------
-------------------
---------5----------
-0h1p0-----0h1p0--3
p.m._______________   


Riff #19 maynard screams ahhhhhhh!!!!
----------------------
----------------------
---------7------------
-0h1p0---7---0h1p0---3
-0h1p0---5---0h1p0---3
-0h1p0-------0h1p0---3


Riff #20 Let go let go let go.....
------------------------
------------------------
------------------------
------------------------
-------------------------
-0-0-00000-0-0-00000


Riff #21
---------------------------------------------
----------------------------------------------
-7v-7v-7v-7v-7v-7v-5v-5v-5v/-10v---5-7v
----------------------------------------------
----------------------------------------------
----------------------------------------------


Riff #22
--------------------------------------------------------
--------------------------------------------------------
-14-14-14-1414-15-14-15-14--12-12-12-1212/-17
-12-12-12-1212-13-14-13-14--10-10-10-1010/-15
-12-12-12-1212-13-14-13-14--10-10-10-1010/-15
-12-12-12-1212-13-14-13-14--10-10-10-1010/-15


Riff #23
-------------------------------------
-------------------------------------
-------------------------------------
-0-0-0-00--1-0--1-0--5-5-5--0-3b
-0-0-0-00--1-0--1-0--5-5-5--0-3b
-0-0-0-00--1-0--1-0--5-5-5--0-3b


Riff #24
------------------
------------------
------------------
-0h1p0-0-0h1p0
-0h1p0-0-0h1p0
-0h1p0-0-0h1p0



Comments