Tool - Gaping Lotus Experience Chords & Tabs

 

Gaping Lotus Experience Chords & Tabs

Tool Chords & Tabs

Version: 1 Type: Tab 0 ratings
1 star 2 stars 3 stars 4 stars 5 stars
comments

Gaping Lotus Experience Tab

The Gaping Lotus Experience
(hidden track on "Opiate")

0--------------------------0-----------0-------------------------------------|
--3---3----------------3-----3---3---3---3---3-----------1-1-1h3-3-------1---|
----2--------2-----------2-----2---2-------2---2-----------------------------|
-----------0---------0---------------------------0---------------------------|
-----------------------------------------------------------------------------|
-----------------------------------------------------------------------------|


                                          Pick as many times until...
-------------------------------------------------------------/10-8h10p8-8----|
1-1h3-3----3-3-3-3-3-3-1-1-1h3-3-3-3-3--3-3-3---3----------------------------|
-----------------------------------------------------------------------------|
-----------------------------------------------------------------------------|
-----------------------------------------------------------------------------|
-----------------------------------------------------------------------------|

[ Tab from: http://www.guitartabs.cc/tabs/t/tool/gaping_lotus_experience_tab.html ]
                                            I probably made this part up.*
\5-5-8h10-8------------------------10----10----------------------------------|
------------10-8-11-11-10-10-10-10----10-----10--------2h4h5-8-8-8---8-8-----|
------------------------------------------------2h4h5------------------------|
-----------------------------------------------------------------------------|
-----------------------------------------------------------------------------|
-----------------------------------------------------------------------------|

-----------------------------------------------------------------------------|
-----------------------------------1-1/3-3-----3-1-1---1-3-3---1-1-----1-----|
-----------------------------------------------------2---------------2---2---|
-----------------------------------------------------------------------------|
----3---3-3h5-------3---3-3h5-5----------------------------------------------|
-----------------------------------------------------------------------------|


bend 1/2               inaudible...                       THE END
-----------------------------------------------------------------------------|
-3-----------3p1-------------------------------------------------------------|
-------------------2---------------------------------------------------------|
---------------------0-------------------------------------------------------|
-----------------------------------------------------------------------------|
-----------------------------------------------------------------------------|


*alternative to 2h4h5          just pick alot while sliding
-----------------------------------------------------------------------------|
-----------------------------------/--8--5--8--------------------------------|
-----------------------------------------------------------------------------|
-----------------------------------------------------------------------------|
-----------------------------------------------------------------------------|
-----------------------------------------------------------------------------|
Comments