Tool - Forty-six And 2 Chords & Tabs

 

Forty-six And 2 Chords & Tabs

Tool Chords & Tabs

Version: 1 Type: Bass Tab 0 ratings
1 star 2 stars 3 stars 4 stars 5 stars
comments

Forty-six And 2 Bass Tab

   
Tool
46 and 2

This song is tuned (D,A,D,G) 
Meaning, tune your E string down to D 
I got this tab somewhere but It sounds right and I also added to it.
If you have any comments or corrections just mail me! 
pdough@icanect.net 
Also the (h) in the tab stands for hammering and the (p) stands for 
Pluck becuase this song includes slapping method. 
[ Tab from: http://www.guitartabs.cc/tabs/t/tool/forty_six_and_2_btab.html ]
G:|-----------------------------------------------------------| 
D:|-----------------------------------------------------------| 
A:|------5-----------3h5----------6p5---------3h5---------1h3-| 
D:|--0-----------0------------0-----------0----------0--------| 

G:|----------------------------------------------------| 
D:|----------------------------------------6h5---------| 
A:|-------5---------3h5----------6h5--------------6h5--| 
D:|---0--------0-----------0---------------------------| 

(This is the little riff that you hear later on) 
G:|-------------------------------------------------------| 
D:|-------------------------------------------------------| 
A:|---5--3--------6--5-----5---3-------6-5------1---3-----| 
D:|-------------------------------------------------------| ====
Comments