Tool - Flood Chords & Tabs

 

Flood Chords & Tabs

Tool Chords & Tabs

Version: 1 Type: Tab 0 ratings
1 star 2 stars 3 stars 4 stars 5 stars
comments

Flood Tab

   
drop D


intro
---------------------------------------
---------------------------------------
---------------------------------------
---------------------------------------
-0---5--5--6--6--5-5-5-5--3--0--0--0--6
-0---5--5--6--6--5-5-5-5--3--0--0--0--6

---------------------------------------
---------------------------------------
---------------------------------------
---------------------------------------
-5-5-5-5--6--6--5--5--5--3-3-3-3-3-3-3-
-5-5-5-5--6--6--5--5--5--3-3-3-3-3-3-3-
                           |.....pm....

----------------------------/-----\-----
---------------------------/-------\----
--------------------------/---------\--- bend the 5&6's
-------------------------6-6-6-6-6-6-6--
-3-3-3-3-3-3-3-3-0--0----5-5-5-5-5-5-5-0
-3-3-3-3-3-3-3-3-0--0------------------0
...............|


[ Tab from: http://www.guitartabs.cc/tabs/t/tool/flood_tab.html ]
verse
-----|---------------------------
-----|---------------------------
-----|---------------------------
-----|---------------------------  4x then pm. 4x
--0-2|6\5-0-2-5-0-6\5-0-2-0-2-5--
-----|---------------------------
   ^
do not reapete

chorus
---------------------------------
---------------------------------
---------------------------------
--------------------------------- 4x
------6\5-0-2-5-0-6\5-0-2-0-2-5--
------6\5-0-2-5-0-6\5-0-2-0-2-5--

solo
---------------------------------
---------------------------------
-----------------)---------------
-5/(10)--10h12-12--13-12----10-12
-------------------------12------

---------------------------------------
----------------------------12-10-12-10
----------------------12-10-12-10-12-10
-13-12-10-10-12-12-10------------------
---------------------------------------
---------------------------------------

fill
---------------------------------
---------------------------------
---------------------------------
-----5-----7-----9---------------
-x-x-3-x-x-5-x-x-7-x-x-0---------
-x-x---x-x---x-x---x-x-0---------
Comments