Tool - Eulogy Chords & Tabs

 

Eulogy Chords & Tabs

Tool Chords & Tabs

Version: 9 Type: Tab 0 ratings
1 star 2 stars 3 stars 4 stars 5 stars
comments

Eulogy Tab

   
Eulogy by Tool
Tuning - D A D G B e

(0:00 - 0:12)
1:----------------------------------------------------------------------------------|
2:----------------------------------------------------------------------------------|
3:----------------------------------------------------------------------------------|
4:------------------------------REST -----------------------------------------------|
5:----------------------------------------------------------------------------------|
6:----------------------------------------------------------------------------------|
(0:12 - 0:37)  This isn't a guitar but it would be nice to know anyway
1:----------------------------------------------------------------------------------| (2x)
2:----------------------------------------------------------------------------------|
3:---2--------2--------2-------2-------2--------2-----------------------------------|
4:---x--------x--------x-------x-------x--------x-----------------------------------|
5:---0--------0--------0-------0-------0--------0-----------------------------------|
6:----------------------------------------------------------------------------------|
        1 2 3 4 1 2 3 4 1 2 3 4 1 2 3 4 1 2 3 4 1 2 3 4
(0:28 - 0:35) Fade In
1:----------------------------------------------------------------------------------|
2:---0--0--0--0--0-------0--0--0--0--0-------0--0--0--0--0--------------------------|
3:----------------------------------------------------------------------------------|
4:----------------------------------------------------------------------------------|
5:----------------------------------------------------------------------------------|
6:----------------------------------------------------------------------------------|
(0:35 - 0:46)
1:---------------------------0-0---------------------------------------------------------|
2:---0-0----3-3----1-1-----------0-0----3-3-----------1-1----0-0-------------------------|
3:--------------------------------------------------2-2-------------------0-0----22------|
4:---------------------------------------------------------------------------------------|
5:---------------------------------------------------------------------------------------|
6:---------------------------------------------------------------------------------------|
(0:47 - 0:58)
1:----------------------------------------------------------------------------------|
2:--0-0-0-0-0-0-0-0-0-0-0-0-0-0-0-0-0-0-0-0-0---------------------------------------|
3:----------------------------------------------------------------------------------|
4:----------------------------------------------------------------------------------|
5:----------------------------------------------------------------------------------|
6:----------------------------------------------------------------------------------|
(0:59 - 1:10)
1:---------------------------0-0---------------------------------------------------------|
2:---0-0----3-3----1-1-----------0-0----3-3-----------1-1----0-0-------------------------|
3:--------------------------------------------------2-2-------------------0-0----22------|
4:---------------------------------------------------------------------------------------|
5:---------------------------------------------------------------------------------------|
6:---------------------------------------------------------------------------------------|

(1:10 - 1:21)
1:--------------------------------------------------------------------------------------|
2:---0--0--0--0--0-------0--0--0--0--0-------0--0--0--0--0-------0-0-0-0-0--------------|
3:--------------------------------------------------------------------------------------|
4:--------------------------------------------------------------------------------------|
5:--------------------------------------------------------------------------------------|
6:--------------------------------------------------------------------------------------|
(1:22 - 1:33)                                                    21x
1:----------------------------------------------------------------------------------|
2:---0------------------------------------------------------------------------------|
3:----------------------------------------------------------------------------------|
4:----------------------------------------------------------------------------------|
5:----------------------------------------------------------------------------------|
6:----------------------------------------------------------------------------------|
(1:33 - 1:45)
1:----------------------------------------------------------------------------------|
2:---0--0---0--0-------0--0---0--0-------0--0---0--0--------------------------------|
3:----------------------------------------------------------------------------------|
4:----------------------------------------------------------------------------------|
5:----------------------------------------------------------------------------------|
6:----------------------------------------------------------------------------------|
(1:46 - 1:56)
1:----------------------------------------------------------------------------------|
2:---0-0-0-0b-0b-0b-0b-0-0-0-0-0b-0b-0b-0b-0-0-0-0----------------------------------|
3:----------------------------------------------------------------------------------|
4:----------------------------------------------------------------------------------|
5:----------------------------------------------------------------------------------|
6:----------------------------------------------------------------------------------|
(1:56 - 2:08)
1:----------------------------------------------------------------------------------|
2:----------------------------------------------------------------------------------|
3:----------------------------------------------------------------------------------|
4:---2---2-----------2---2----------2---2-----------2---2---------------------------|
5:---2---2-----------2---2----------2---2-----------2---2---------------------------|
6:---2---2-----------2---2----------2---2-----------2---2---------------------------|
(2:08 - 2:35)                          9x                  (2:35 - 2:37)
1:------------------------------------------------|---------------------------------|
2:------------------------------------------------|---------------------------------|
3:------------------------------------------------|---------------------------------|
4:---2-2-2-2---2-2-2-2---0-20h-2p-0-0--|--2-2-2-2------2-2-2-2---------------------|
5:---2-2-2-2---2-2-2-2---0-20h-2p-0-0--|--2-2-2-2------2-2-2-2---------------------|
6:---2-2-2-2---2-2-2-2---0-20h-2p-0-0--|--2-2-2-2------2-2-2-2---------------------|


(2:37 - 2:38)        (2:38 - 3:07)
1:-----------------|-------------------------------------------------------------------------\--|
2:-----------------|----------------------------------------------------------------------------|  \
3:-----------------|----------------------------------------------------------------------------|    \
4:---7---7-7-9---|---0--2----0--2--0--0--2--0--2----0--2--0--0------5-5-5-5-5-9---   -----------|
5:---7---7-7-9---|---0--2----0--2--0--0--2--0--2----0--2--0--0------5-5-5-5-5-9---   -----------|
6:---7---7-7-9---|---0--2----0--2--0--0--2--0--2----0--2--0--0------5-5-5-5-5-9---   -----------|
                                                                                         
                                        > 4x
1:----------------------------------------------------------------|
2:----------------------------------------------------------------|
3:----------------------------------------------------------------|
4:--- 0--2----0--2--0--0--2--0--2----0--2--0--0------7-7-7-7-7-9--|   /
5:--- 0--2----0--2--0--0--2--0--2----0--2--0--0------7-7-7-7-7-9--| /
6:--- 0--2----0--2--0--0--2--0--2----0--2--0--0------7-7-7-7-7-9--|
(3:08 - 3:11)
1:---------------------------------------------------------------------|
2:---------------------------------------------------------------------|
3:---------------------------------------------------------------------|
4:--- 0--2----0--2--0--0--2--0--2----0--2--0--0------------------------|
5:--- 0--2----0--2--0--0--2--0--2----0--2--0--0------------------------|
6:--- 0--2----0--2--0--0--2--0--2----0--2--0--0------------------------|
(3:12 - 3:55) 12x Palm Mute,   3x Open      (3:55 - 3:57)
1:------------------------------------------------|---------------------------------|
2:------------------------------------------------|---------------------------------|
3:------------------------------------------------|---------------------------------|
4:---2-2-2-2---2-2-2-2---0-20h-2p-0-0--|--2-2-2-2------2-2-2-2---------------------|
5:---2-2-2-2---2-2-2-2---0-20h-2p-0-0--|--2-2-2-2------2-2-2-2---------------------|
6:---2-2-2-2---2-2-2-2---0-20h-2p-0-0--|--2-2-2-2------2-2-2-2---------------------|
(3:58 - 3:59)         (4:00 - 4:34)
1:-----------------|-------------------------------------------------------------------------\--|
2:-----------------|----------------------------------------------------------------------------|  \
3:-----------------|----------------------------------------------------------------------------|    \
4:---7---7-7-9---|---0--2----0--2--0--0--2--0--2----0--2--0--0------5-5-5-5-5-9---   -----------|
5:---7---7-7-9---|---0--2----0--2--0--0--2--0--2----0--2--0--0------5-5-5-5-5-9---   -----------|
6:---7---7-7-9---|---0--2----0--2--0--0--2--0--2----0--2--0--0------5-5-5-5-5-9---   -----------|
                                                                                         
                                        > 4x
1:----------------------------------------------------------------|
2:----------------------------------------------------------------|
3:----------------------------------------------------------------|
4:--- 0--2----0--2--0--0--2--0--2----0--2--0--0------7-7-7-7-7-9--|   /
5:--- 0--2----0--2--0--0--2--0--2----0--2--0--0------7-7-7-7-7-9--| /
6:--- 0--2----0--2--0--0--2--0--2----0--2--0--0------7-7-7-7-7-9--|

[ Tab from: http://www.guitartabs.cc/tabs/t/tool/eulogy_tab_ver_9.html ]
(4:34 - 4:42)                  3x                  (4:43 - (4:44)
1:-----------------------------------------|----------------------------------------|
2:-----------------------------------------|----------------------------------------|
3:-----------------------------------------|----------------------------------------|
4:---5-5-5-5-5-9-----7-7-7-7-7-9-----|---5-5-5----9-7-5-2---------------------------|
5:---5-5-5-5-5-9-----7-7-7-7-7-9-----|---5-5-5----9-7-5-2---------------------------|
6:---5-5-5-5-5-9-----7-7-7-7-7-9-----|---5-5-5----9-7-5-2---------------------------|
(4:44 - 4:52)  Palm Muted                                        3x
1:----------------------------------------------------------------------------------|
2:----------------------------------------------------------------------------------|
3:----------------------------------------------------------------------------------|
4:----2-2---2---0--10\-5---5---5-5/--7--0-------------------------------------------|
5:----2-2---2---0--10\-5---5---5-5/--7--0-------------------------------------------|
6:----2-2---2---0--10\-5---5---5-5/--7--0-------------------------------------------|
(4:53 - 4:55)  Still Palm Mute
1:-------------------------------------------------------------------------|
2:-------------------------------------------------------------------------|
3:-------------------------------------------------------------------------|
4:----2-2---2---0--10\-5---5---5-5/----------------------------------------|
5:----2-2---2---0--10\-5---5---5-5/----------------------------------------|
6:----2-2---2---0--10\-5---5---5-5/----------------------------------------|
(4:55 - 5:06)  Open
1:----------------------------------------------------------------------------------|
2:----------------------------------------------------------------------------------|
3:-----------------------------------------------------let the last note ring-------|
4:----2-2---2---0--10\-5---5---5-5/--7--0-------------------------------------------|
5:----2-2---2---0--10\-5---5---5-5/--7--0-------------------------------------------|
6:----2-2---2---0--10\-5---5---5-5/--7--0-------------------------------------------|
(5:14 - 5:19)
1:----------------------------------------------------------------------------------|
2:----------------------------------------------------------------------------------|
3:---gain---------------------------Scrape the pic down the neck -------------------|
4:----------------------------------------------------------------------------------|
5:----------------------------------------------------------------------------------|
6:----------------------------------------------------------------------------------|
(5:19 - 5:40)                                      4x
1:-----------------2-----------------------------------|-----------------------------|
2:------------0----------------------------------------|--------3--------------------|
3:----------------------------------------------------- |--------2-------------------|
4:------2----------------------------------------------|--------0~ ------------------|
5:------------------------------------------------------|--------0~ -----------------|
6:------------------------------------------------------|--------0~ -----------------|


(5:40 - 5:51)                                   2x
1:-----------------2-----------------------------------|----------------3---2----------|
2:------------0----------------------------------------|--------3----------------0-----|
3:----------------------------------------------------- |--------2---------------------|
4:------2----------------------------------------------|--------0~ --------------------|
5:------------------------------------------------------|--------0~ -------------------|
6:------------------------------------------------------|--------0~ -------------------|
(5:51 - 6:00)
1:-----------------2-----------------------------------|-------------------------------|
2:------------0----------------------------------------|--------3----------------------|
3:----------------------------------------------------- |--------2---------------------|
4:------2----------------------------------------------|--------0~ --------------------|
5:------------------------------------------------------|--------0~ -------------------|
6:------------------------------------------------------|--------0~ -------------------|
(6:01 - 6:11)                                                4x
1:----------------------------------------------------------------------------------|
2:----------------------------------------------------------------------------------|
3:----------------------------------------------------------------------------------|
4:---0--2--2--2--0--0--0--3--3--3--5--5--5--1--1--1---------------------------------|
5:---0--2--2--2--0--0--0--3--3--3--5--5--5--1--1--1---------------------------------|
6:---0--2--2--2--0--0--0--3--3--3--5--5--5--1--1--1---------------------------------|
(6:12 - 6:22)                                                4x
1:----------------------------------------------------------------------------------|
2:--- ------------------------------------------------------------------------------|
3:----------------------------------------------------------------------------------|
4:--0-2---0--3--5--1----------------------------------------------------------------|
5:--0-2---0--3--5--1----------------------------------------------------------------|
6:--0-2---0--3--5--1----------------------------------------------------------------|
(6:23 - 6:36)
1:-------------------------------------|--------------------------------------------|
2:-------------------------------------|--------------------------------------------|
3:-------------------------------------|--------------------------------------------|
4:-----16-------11--12---7--7------|--- (7)----/7\--0 ~ ----------------------------|
5:-----14--------9---10---5--5------|---(5)----/7\--0 ~ ----------------------------|
6:-----14--------9---10---5--5------|---(5)----/7\--0 ~ ----------------------------|
(6:46 - 6:57)                                            9x
1:----------------------------------------------------------------------------------|
2:----------------------------------------------------------------------------------|
3:----------------------------------------------------------------------------------|
4:---2-2-2-2------------------------------------------------------------------------|
5:---2-2-2-2------------------------------------------------------------------------|
6:---2-2-2-2------------------------------------------------------------------------|


(6:57 - 7:06)               4x
1:-----------------2b----------------------------------------------------------------|
2:------------0----------------------------------------------------------------------|
3:----------------------------------------------------- -----------------------------|
4:------2----------------------------------------------------------------------------|
5:-----------------------------------------------------------------------------------|
6:-----------------------------------------------------------------------------------|
(7:07 - 7:27)                                 4x
1:----------------------------------------------------------------------------------|
2:----------------------------------------------------------------------------------|
3:----------------------------------------------------------------------------------|
4:--2---5----9b----------0---5---10---9---5-----------------------------------------|
5:--2---5----9b----------0---5---10---9---5-----------------------------------------|
6:--2---5----9b----------0---5---10---9---5-----------------------------------------|

Solo
(7:28 - 7:48)
1:---10-12-----10-12-----10-12------10-12-----10-12-----10-12------10-12-----10-12--|
2:----------------------------------------------------------------------------------|
3:----------------------------------------------------------------------------------|
4:----------------------------------------------------------------------------------|
5:----------------------------------------------------------------------------------|
6:----------------------------------------------------------------------------------|

1:---12-14------14-15----14-15----14-15----14-15----14-15----15-14----12-10----14-15--|
2:------------------------------------------------------------------------------------|
3:------------------------------------------------------------------------------------|
4:------------------------------------------------------------------------------------|
5:------------------------------------------------------------------------------------|
6:------------------------------------------------------------------------------------|

1:---10-12------10-12-----10-12-----------------------------------------------------------------|
2:---------------------------------------12p13h12b----------------------------------------------|
3:----------------------------------------------------------------------------------------------|
4:----------------------------------------------------------------------------------------------|
5:----------------------------------------------------------------5-7----5-7----5-7----5-7p8b7--|
6:----------------------------------------------------------------------------------------------|

1:----------------------------------------------------------------------------------|
2:--- ------------------------------------------------------------------------------|
3:----------------------------------------------------------------------------------|
4:----------------------------------------------------------------------------------|
5:--- 5-7----5-7----5-7----5-7p8b7------5-7----5-7----5-7----5-7p8b7------10\---0/--|
6:----------------------------------------------------------------------------------|


(7:48 - 7:58)                                                              4x
1:----------------------------------------------------------------------------------|
2:--- ------------------------------------------------------------------------------|
3:----------------------------------------------------------------------------------|
4:--0-2---0--3--5--1----------------------------------------------------------------|
5:--0-2---0--3--5--1----------------------------------------------------------------|
6:--0-2---0--3--5--1----------------------------------------------------------------|
(7:58 - 8:08)
1:-------------------------------------|---------------------|
2:-------------------------------------|---------------------|
3:-------------------------------------|---------------------|
4:-----16--------11---12---7--7----|------- 7//-----0--------|
5:-----14---------9----10---5--5----|-------5//-----0--------|
6:-----14---------9----10---5--5----|-------5//-----0--------|
(8:09 - 8:17)                                            first ending          second
1:-------------------------------------------|---------------------|-------|
2:--- 5-----5-5-5----5-5----5p6---6-6---|---------------------|------------|
3:-------------------------------------------|-----10------5------|----10--|
4:-------------------------------------------|---- 10------5------|----10--|
5:-------------------------------------------|-----10------5------|----10--|
6:-------------------------------------------|-----10------5------|----10--|
(8:18 - 8:28)                                      7x
1:----------------------------------------------------------------------------------|
2:----------------------------------------------------------------------------------|
3:----------------------------------------------------------------------------------|
4:---2-2-2-2------------------------------------------------------------------------|
5:---2-2-2-2------------------------------------------------------------------------|
6:---2-2-2-2------------------------------------------------------------------------|

Thank you very much, the solo might be off cause you know how hard solos are!
This was my first tab, let me know what you think - Mike Caraffa
Comments