Tool - Eulogy Chords & Tabs

 

Eulogy Chords & Tabs

Tool Chords & Tabs

Version: 6 Type: Tab 0 ratings
1 star 2 stars 3 stars 4 stars 5 stars
comments

Eulogy Tab

   
Artist: Tool
Song: Eulogy
Album: Ænema  

Tuning low to high: D A D G B E
/=slide up \=slide down h=hammer PM =palm mute ^=bend

tabbed: by brYan raGue
visit: www.bryantabcenter.com

I think this song is one of the best by tool and it's 
really fun to play. 

Well on this song you just chill during the intro 
(1 min 57 sec to be exact) then the guitar comes in with
this:
|----------------------------------|
|----------------------------------|
|----------------------------------|
|-2--2---2--2---2--2---2--2--2-3-0-|
|-2--2---2--2---2--2---2--2--2-3-0-|
|-2--2---2--2---2--2---2--2--2-3-0-|
PM-      -      -      -     -----PM           

verse:                           pre chorus:
|------------------------|      |-------------|
|------------------------|      |-------------|
|------------------------|      |-------------|
|-2222-x-2222-x-2223-00--| x7   |--2222-2222--|
|-2222-x-2222-x-2223-00--|      |--2222-2222--|
|-2222-x-2222-x-2223-00--|      |--2222-2222--|
 PM---------------PM              PM--------PM

chorus:
|--------------------------------------|
|--------------------------------------|
|--------------------------------------|
|--77777-9--0-2-2-0-2-2-0-222--55555-9-|
|--77777-9--0-2-2-0-2-2-0-222--55555-9-|
|--77777-9--0-2-2-0-2-2-0-222--55555-9-|

|----------------------|
|----------------------|
|----------------------|
|--0-2-2-0-2-2-0-222---|
|--0-2-2-0-2-2-0-222---|  repeat whole chorus 4x
|--0-2-2-0-2-2-0-222---|

verse:                           
|------------------------|      |-------------------|
|------------------------|      |-------------------|
|------------------------|      |-------------------|
|-2222-x-2222-x-2223-00--| x12  |-2222--2222--2h3-0-|
|-2222-x-2222-x-2223-00--|      |-2222--2222--2h3-0-| x3
|-2222-x-2222-x-2223-00--|      |-2222--2222--2h3-0-|
 PM---------------PM              

pre chorus:
|-------------|
|-------------|
|-------------|
|--2222-2222--|
|--2222-2222--|
|--2222-2222--|
  PM--------PM

chorus:
|--------------------------------------|
|--------------------------------------|
|--------------------------------------|
|--77777-9--0-2-2-0-2-2-0-222--55555-9-|
|--77777-9--0-2-2-0-2-2-0-222--55555-9-|
|--77777-9--0-2-2-0-2-2-0-222--55555-9-|

|----------------------|
|----------------------|
|----------------------|
|--0-2-2-0-2-2-0-222---|
|--0-2-2-0-2-2-0-222---| repeat whole chorus 2x then 
|--0-2-2-0-2-2-0-222---| play this variation of the
                         chorus:

chorus variation:
|---------------------------------------|
|---------------------------------------|
|---------------------------------------|
|--77--77-9--0-2-2-0-2-2-0-222--55555-9-|
|--77--77-9--0-2-2-0-2-2-0-222--55555-9-|
|--77--77-9--0-2-2-0-2-2-0-222--55555-9-|
[ Tab from: http://www.guitartabs.cc/tabs/t/tool/eulogy_tab_ver_6.html ]
|----------------------|
|----------------------|
|----------------------|
|--0-2-2-0-2-2-0-222---|
|--0-2-2-0-2-2-0-222---| play that once then go back and play the  
|--0-2-2-0-2-2-0-222---| normal chorus 2x, then
                         play this......WHEW!
                         
|-----------------------|    |---------|
|1010101010-12-88888-12-|    |-1210-8--|
|-9-9-9-9-9-11-77777-11-|    |-11-9-7--|
|-7-7-7-7-7-9--55555-9--|    |--9-7-5--|
|-7-7-7-7-7-9--55555-9--|x4  |--9-7-5--|
|-7-7-7-7-7-9--55555-9--|    |--9-7-5--|


|-----------------------|
|-----------------------|
|---------5-------------|
|-0h2-2-2-5-5-5-5-5h6-0-|
|-0h2-2-2-3-5-5-5-5h6-0-| x4
|-0h2-2-2---5-5-5-5h6-0-|
        PM      PM

|-----------------------|
|-----------------------|
|---------5-------------|
|-0h2-2-0-5-5-5-5-5h6-0-|
|-0h2-2-0-3-5-5-5-5h6-0-| x4
|-0h2-2-0---5-5-5-5h6-0-|

listen to the song to know when to play during this 
(figure out the pick scraps in this part yourself)
|----2----2---2------2---2---3-2-----2---2----|
|---0----0---0------0---0-------0---0---0-----|
|---------------------------------------------|
|--2----2---2------2---2-----------2---2------|
|---------------------------------------------|
|---------------0----------0---------------0--|

|--------------------------|
|--------------------------|
|--------------------------|
|-2222-00-0-3-0-55-555-00--|
|-2222-00-0-3-0-55-555-00--|x4
|-2222-00-0-3-0-55-555-00--|
 PM---------------------PM

|------------------------|   |-----------------|
|------------------------|   |-----------------|
|------------------------|   |-----------------|
|-0h2-2-0-0-3-0-5-5555---|   |-14-xx-9-x-10-5--|
|-0h2-2-0-0-3-0-5-5555---|x4 |-14-xx-9-x-10-5--|x3
|-0h2-2-0-0-3-0-5-5555---|   |-14-xx-9-x-10-5--|


|---|    |------|      |---2^---2^---2^---2^---|
|---|    |------|      |--0----0----0----0-----|
|---|    |------|      |-----------------------|
|-0-|    |-2222-|      |-2----2----2----2------|
|-0-|    |-2222-|x11   |-----------------------|
|-0-|    |-2222-|      |-----------------------|
          PM-PM


|-----------------------|    |-----|    |------------------|
|-----------------------|    |-3h5-|    |------------------|
|-----------------------|    |-----|    |------------------|
|-----------------------|    |-----|    |-0h2-0h2-0h2-0h2~-|
|--2---9^----5-10-9-5---|x4  |-----|x21 |------------------|x3
|-2---------5-----------|    |-----|    |------------------|


|-----| |-------------------------|
|-----| |-------------------------|
|-----| |-------------------------|
|-5\0-| |--0h2-x-0-0-3-0-5-5555---|
|-----| |--0h2-x-0-0-3-0-5-5555---|x4
|-----| |--0h2-x-0-0-3-0-5-5555---|

|----------------------------|
|----------------------------|
|----------------------------|
|-9-xx-9-x-10-x-12-12121212--|
|-9-xx-9-x-10-x-12-12121212--|
|-9-xx-9-x-10-x-12-12121212--|

and finally...the moment you have all been waiting for,
the outro:
|---------------------------------------------------|
|---------------------------------------------------|
|-9-9-999-10-----------------------9-9-999-10-------|
|-9-9-999-10-10-1010-7-7-7-5-3-0---9-9-999-10--10---|
|-7-7-777/8--10-1010-7-7-7-5-3-0---7-7-777/8---10---|
|------------10-1010-7-7-7-5-3-0---------------10---|

|-------------------------------------|
|-------------------------------------|
|-------------------------------------|
|-2222-2222-2222-2222-2222-2222-2222--|
|-2222-2222-2222-2222-2222-2222-2222--|
|-2222-2222-2222-2222-2222-2222-2222--|

then say the magic words, "simsalabimbamba saladu saladim" 
and you, my friend, are done.
Comments