Tool - Eulogy Chords & Tabs

 

Eulogy Chords & Tabs

Tool Chords & Tabs

Version: 5 Type: Tab 0 ratings
1 star 2 stars 3 stars 4 stars 5 stars
comments

Eulogy Tab

 
 
I've never really tabbed anything before and submitted it but there were  
a lot of wrong ways people tabbed it. I really like this song and this is 
the way I play it. 
I learned this a couple of weeks ago I just didn't have the time to type 
it out. 
Here goes: 

"Eulogy" by Tool 
Tabbed by: Wilfredo P. 
WilPacheco@juno.com 


This is the intro: 
Play this a couple of times. Starts off soft. 

e|-----------------------------------------------| 
b|-----------------------------------------------| 
g|-4-4-4-4---------------------------------------| 
d|-----------------------------------------------| 
a|-----------------------------------------------| 
D|-----------------------------------------------| 

Then play this: 

e|-------------------------------------------------------| 
b|-------------------------------------------------------| 
g|-4-4--7-7--5-5--9-9--4-4--7-7--2-2--5-5-4-4--0-0--2-2--| 
d|-------------------------------------------------------| 
a|-------------------------------------------------------| 
D|-------------------------------------------------------| 

Repeat from the beginning and then play this note and then bend it a 
little: 

e|----------------| 
b|----------------| 
g|-4-4-4-4^-------| 
d|----------------| 
a|----------------| 
D|----------------| 

After that play this a couple of times: 

e|----------------| 
b|----------------| 
g|----------------| 
d|-X2--X2--X2--X2-| 
a|-X2--X2--X2--X2-| 
D|-X2--X2--X2--X2-| 

Then Adam starts playing this:(fig.1) 

e|-----------------------------------------------| 
b|-----------------------------------------------| 
g|-----------------------------------------------| 
d|-----------------------------------------------| 
a|-----------------------------------------------| 
D|-2-2-2-2-----2-2-2-2----0-2-3-2-0-0------------| 

Play before Chorus:(fig.2) 

e|-----------------------| 
b|-----------------------| 
g|-----------------------| 
d|-----------------------| 
a|-----------------------| 
D|-2-2-2-2------2-2-2-2--| 

Chorus: 

e|-----------------------------------------------| 
b|-----------------------------------------------| 
g|-----------------------------------------------| 
d|-7-7-7-7-7-9----2-2-0-2-2-X-2-2-3-0------------| 
a|-7-7-7-7-7-9----2-2-0-2-2-X-2-2-3-0------------| 
D|-7-7-7-7-7-9----2-2-0-2-2-X-2-2-3-0------------| 

e|-----------------------------------------------| 
b|-----------------------------------------------| 
g|-----------------------------------------------| 
d|-5-5-5-5-5-9----2-2-0-2-2-X-2-2-3-0------------| 
a|-5-5-5-5-5-9----2-2-0-2-2-X-2-2-3-0------------| 
D|-5-5-5-5-5-9----2-2-0-2-2-X-2-2-3-0------------| 
Play the Chorus about three times. 

Let the bass play for a little while and play this again: 

e|-------------------------------------------------------| 
b|-------------------------------------------------------| 
g|-4-4--7-7--5-5--9-9--4-4--7-7--2-2--5-5-4-4--0-0--2-2--| 
d|-------------------------------------------------------| 
a|-------------------------------------------------------| 
D|-------------------------------------------------------| 

Start playing fig.1 and switch to this: 

e|-----------------------------------------------| 
b|-----------------------------------------------| 
g|-----------------------------------------------| 
d|-2-2-----2-2-----0-2-3-2-0-0-------------------| 
a|-2-2-----2-2-----0-2-3-2-0-0-------------------| 
D|-2-2-----2-2-----0-2-3-2-0-0-------------------| 

Play Chorus again. 
Play this four times: 
[ Tab from: http://www.guitartabs.cc/tabs/t/tool/eulogy_tab_ver_5.html ]
e|-----------------------------------------------| 
b|-----------------------------------------------| 
g|-----------------------------------------------| 
d|-7-7-7-7-7-9--5-5-5-5-5-9----------------------| 
a|-7-7-7-7-7-9--5-5-5-5-5-9----------------------| 
D|-7-7-7-7-7-9--5-5-5-5-5-9----------------------| 

After you play the above play this: 
e|--------| 
b|--------| 
g|--------| 
d|-9-7-5--| 
a|-9-7-5--| 
D|-9-7-5--| 


Then play this till 5:09: 

e|----------------------------| 
b|----------------------------| 
g|--------5-------7-7-7-------| 
d|-0-2-2--5--5-5--7-7-7-------| 
a|-0-2-2--3--5-5--5-5-5-------| 
D|-0-2-2-----5-5--------------| 

And let ring till bass starts. 

Play this soft:(fig.3) 

e|-----| 
b|-3---| 
g|-2---| 
d|-0---| 
a|-0---| 
D|-0---| 

Then:(fig.4) 
e|-----2----------------| 
b|--0-------------------| 
g|0---------------------| 
d|----------------------| 
a|----------------------| 
D|----------------------| 
(scrape pick on cord to make noise.) 

Play this: 
e|----------------------------| 
b|----------------------------| 
g|----------------------------| 
d|----------------------------| 
a|----------------------------| 
D|-0-2-2-2-0-0-0-3-3-5-5-2-2--| 

Then play the cords:(fig.5) 
e|--------------------------| 
b|--------------------------| 
g|--------------------------| 
d|-0-2-X-X-0-X-3-X-5-5-5-2--| 
a|-0-2-X-X-0-X-3-X-5-5-5-2--| 
D|-0-2-X-X-0-X-3-X-5-5-5-2--| 

Then play this four times: 
e|------------------------| 
b|------------------------| 
g|------------------------| 
d|-14-X-X-9-X-8-X-7--7-7--| 
a|-14-X-X-9-X-8-X-7--7-7--| 
D|-14-X-X-9-X-8-X-7--7-7--| 

Play fig.3 loud here. 
There will be a small drum break and then play fig.2 about 5 or 6 times. 
Then start playing fig.4 and bend the last note. 

Solo: 
e|--------------------------------------------------| 
b|-3-5^--3-5^--3-5^--3-5^--3-5^--3-5-3-0-7-5-0-3^~--| 
g|--------------------------------------------------| 
d|--------------------------------------------------| 
a|--------------------------------------------------| 
D|--------------------------------------------------| 

e|----------------------------------------------------------| 
b|----------------------------------------------------------| 
g|----------------------------------------------------------| 
d|-0-2-2-0-2-2-0-2~-0-2~-0-2~---0-2-2-0-2-2-0-2~-0-2~-0-2~--| 
a|----------------------------------------------------------| 
D|----------------------------------------------------------| 

e|--------------------------------------------------| 
b|--------------------------------------------------| 
g|--------------------------------------------------| 
d|--0-2-2-0-2-2-0-2~-0-2~-0-2~----5~~~\~~~~~/~~~~~--| 
a|--------------------------------------------------| 
D|--------------------------------------------------| 

Play fig.5 again. 
Then play this 4 times: 
e|------------------------| 
b|------------------------| 
g|------------------------| 
d|-9-X-X-9-X-10-X-7--7-7--| 
a|-9-X-X-9-X-10-X-7--7-7--| 
D|-9-X-X-9-X-10-X-7--7-7--| 


The end goes a little something like this: 
e|----------------------------------------| 
b|----------------------------------------| 
g|---------------------5-5-----2-2-2-2-2--| 
d|-2-2-2-2-2-3-3-3-3-3-5-5-X-X-2-2-2-2-2--| 
a|-2-2-2-2-2-3-3-3-3-3-3-3-X-X-0-0-0-0-0--| 
D|-2-2-2-2-2-3-3-3-3-3-----X-X-0-0-0-0-0--| 

e|--------------------------| 
b|--------------------------| 
g|---------------------5-5--| 
d|-2-2-2-2-2-3-3-3-3-3-5-5--| 
a|-2-2-2-2-2-3-3-3-3-3-3-3--| 
D|-2-2-2-2-2-3-3-3-3-3------| 

Play seven times: 
e|----------| 
b|----------| 
g|----------| 
d|-2-2-2-2--| 
a|-2-2-2-2--| 
D|-2-2-2-2--| 

The End. 
Comments