Tool - Eulogy Chords & Tabs

 

Eulogy Chords & Tabs

Tool Chords & Tabs

Version: 3 Type: Tab 0 ratings
1 star 2 stars 3 stars 4 stars 5 stars
comments

Eulogy Tab

   
Eulogy 
Tabbed by Neal Petrosky (Petro525@aol.com)
everything only written once
Intro: (no distortion)(hit the string behind the bridge...you can only do this on a gibson-like guitar)
e-----------------------------------|
b-----------------------------------|
g-----------------------------------|
d-----------------------------------|
a--x-x-x-x---x-x-x-x---x-x-x-x-x-x--|
D------------------------------x----|

still pick behind the bridge, but hammer on the fretted notes
use slight distortion
e------------------------------|
b------------------------------|
g------------------------------|
d------------------------------|
a------------------------------|
D--2-2-2-2-x-2-2-2-2-x-0-2h3-0-|

still pick behind bridge, then let feedback
e----------------------|
b----------------------|
g----------------------|
d-2~~~-----------------|
a-2~~~-----------------|
D-2~~~---(2)---(2)-----|

e-------|
b-------|
g-------|
d-x-2---|
a-x-2---|
D-x-2---|

with slight distortion and palm mute
e-----------------------------|
b-----------------------------|
g-----------------------------|
d-----------------------------|
a-----------------------------|
D--2-2-2-2-x-2-2-2-2-x-02330--|

continue palm muting with slight distortion
e--------------------|
b--------------------|
g--------------------|
d--------------------|
a--------------------|
D--2-2-2-2---2-2-2-2-|

with full blast distortion
e----------------|
b---------------|
g---------------|
d---7--7-7-9----|
a---7--7-7-9----|
D---7--7-7-9----|

e----------------------------------------|
b----------------------------------------|
g----------------------------------------|
d--0-2-2--0--2-2--0-0-2-2-2/-5-5-5-5-5-9-|
a--0-2-2--0--2-2--0-0-2-2-2/-5-5-5-5-5-9-|
D--0-2-2--0--2-2--0-0-2-2-2/-5-5-5-5-5-9-|

e----------------------------------------|
b----------------------------------------|
g----------------------------------------|
d--0-2-2--0--2-2--0-0-2-2-2/-7-7-7-7-7-9-|
a--0-2-2--0--2-2--0-0-2-2-2/-7-7-7-7-7-9-|
D--0-2-2--0--2-2--0-0-2-2-2/-7-7-7-7-7-9-|

with slight distortion and palm mute
e-----------------------------|
b-----------------------------|
g-----------------------------|
d-----------------------------|
a-----------------------------|
D--2-2-2-2---2-2-2-2---02330--|

stop palm muting, keep distortion down
e------------------------------|
b------------------------------|
g------------------------------|
d--2-2-2-2---2-2-2-2---2h3-0---|
a--2-2-2-2---2-2-2-2---2h3-0---|
D--2-2-2-2---2-2-2-2---2h3-0---|

e---------------------|
b---------------------|
g---------------------|
d--2-2-2-2---2-2-2-2--|
a--2-2-2-2---2-2-2-2--|
D--2-2-2-2---2-2-2-2--|

chorus fill
e----------------------------------------|
b----------------------------------------|
g----------------------------------------|
d--0-2-2--0--2-2--0-0-2-2-2/-7-7---7-7-9-|
a--0-2-2--0--2-2--0-0-2-2-2/-7-7---7-7-9-|
D--0-2-2--0--2-2--0-0-2-2-2/-7-7---7-7-9-|

e----------------------------------------|
b-10-10-10-10-10-/12\--8--8--8--8--8-/12-|
g--9--9--9--9--9-/11\--7--7--7--7--7-/11-|
d--7--7--7--7--7--/9\--5--5--5--5--5--/9-|
a--7--7--7--7--7--/9\--5--5--5--5--5--/9-|
D--7--7--7--7--7--/9\--5--5--5--5--5--/9-|

e------------------------------------------|
b-10-10-10-10-10-/12\--8--8--8--8-12-10--8-|
g--9--9--9--9--9-/11\--7--7--7--7-11--9--7-|
d--7--7--7--7--7--/9\--5--5--5--5--9--7--5-|
a--7--7--7--7--7--/9\--5--5--5--5--9--7--5-|
D--7--7--7--7--7--/9\--5--5--5--5--9--7--5-|

slight distortion
e------------------------|
b------------------------|
g------------------------|
d------------------------|
a-0h2-2-x/10-5-5-5x5h6-0-|
D-0h2-2-x/10-5-5-5x5h6-0-|
[ Tab from: http://www.guitartabs.cc/tabs/t/tool/eulogy_tab_ver_3.html ]
last time befor bass comes in
e----------------------|
b----------------------|
g----------------------|
d----------------------|
a-0h2-2-x/10-5-5-5x6b--|
D-0h2-2-x/10-5-5-5x6b--|

full distortion
e-------------------------|
b-------------------------|
g-------------------------|
D-0h2-2-0-/10-5-5-5-5h6-0-|
a-0h2-2-0-/10-5-5-5-5h6-0-|
D-0h2-2-0-/10-5-5-5-5h6-0-|

last time
e---------------------------|
b---------------------------|
g---------------------------|
d-0h2-2-0-/10-5-5-5-5\\--0--|
a-0h2-2-0-/10-5-5-5-5\\--0--|
D-0h2-2-0-/10-5-5-5-5\\--0--|

with slight delay and chorus and low distortion
e--------------------------|
b----------7~--------------|
g--------------------------|
d-----9----------xx--------|
a--7-----------xx---xxxxx--|
D-----------------xxxx-----|

fill 1
e----|
b--3-|
g--2-|
d--0-|
a--0-|
D--0-|

fill 2
e--------------|
b--3----8-7----|
g--2--------7~-|
d--0-----------|
a--0-----------|
D--0-----------|

palm mute
e----------------------|
b----------------------|
g----------------------|
d----------------------|
a-02-22-0000-300500100-|
D-02-22-0000-300500100-|

e------------------------|
b---------3--------------|
g---------2--------------|
d---0h2-x-0-0h3-0h5-0h1--|
a---0h2-x-0-0h3-0h5-0h1--|
D-0-0h2-x-0-0h3-0h5-0h1--|

e-----------------------|
b-9---------------------|
g-9-xx------------------|
d-9-xx-9-x10-x5-5-5/7---|
a-7-xx-9-x10-x5-5-5/7---|
D---xx-9-x10-x5-5-5/7---|

e-----------------------|
b-9---------------------|
g-9-xx------------------|
d-9-xx-9-x10-x5~~~-0----|
a-7-xx-9-x10-x5~~~-0----|
D---xx-9-x10-x5~~~-0----|

e---------------------|
b---------------------|
g---------------------|
d--2-2-2-2---2-2-2-2--|
a--2-2-2-2---2-2-2-2--|
D--2-2-2-2---2-2-2-2--|

with slight delay, chorus, and high distortion
e-------------------|
b----------7b8r7----|
g-------------------|
d-----9-------------|
a--7----------------|
D-------------------|

e---------------------|
b----------7gradbend8-|
g---------------------|
d-----9---------------|
a--7------------------|
D---------------------|

with chorus
e-------------------------|
b-------------------------|
g-------------------------|
d-------4b---------5-4-0--|
a----2----------0---------|
D--2----------0-----------|

solo:all pinch harmonics...change tone by moving your hand between the pickups
e----------------------------------------------|
b----------------------------------------------|
g--7-9--7-9--7-9--7-9--7-9--7-9--7-9--7-9--7-9-|
d----------------------------------------------|
a----------------------------------------------|
D----------------------------------------------|

e-----------------------------|
b-----------------------------|
g--7-9--7----7-9--7-----------|
d---------9---------9~~~9~~~--|
a-----------------------------|
D-----------------------------|

e---------------------------------|
b---------------------------------|
g---------------------------------|
d---------------------------------|
a--5-7--5-7--5-7--5-7~~7~~~~------|
D----------------------------/12\-|

outro...all the “x”s may not be right, but screw, you can do it by ear
e------------------------------------------------------------|
b------------------------------------------------------------|
g--9---9-9-----9-9-9/10---10-10------------------------------|
d--9---9-9-----9-9-9/10---10-10---10---10-x---7---7---7p0-0--|
a--7---7-7-----7-7-7/8----8--8--0-10---10-x-0-7---7---7p0-0--|
D-------------------------------0-10---10-x-0-7---7---7p0-0--|

e--------------------------------------------|
b--------------------------------------------|
g--9---9-9-----9-9-9-10---10-10--------------|
d--9---9-9-----9-9-9-10---10-10-10---10-x-x--|
a--7---7-7-----7-7-7-8----8--8--10---10-x-x--|
D-------------------------------10---10-x-x--|

e---------------------|
b---------------------|
g---------------------|
d--2-2-2-2---2-2-2-2--|
a--2-2-2-2---2-2-2-2--|
D--2-2-2-2---2-2-2-2--|
Comments