Tool - Eulogy Chords & Tabs

 

Eulogy Chords & Tabs

Tool Chords & Tabs

Version: 2 Type: Bass Tab 0 ratings
1 star 2 stars 3 stars 4 stars 5 stars
comments

Eulogy Bass Tab

Bass Tab for Eulogy

i thought i'd give eulogy a try, regardless if it's entirley right or not. 
the only thing i really have doubts about is the intro, which i left one
part out of (something to the effect of g|---/10-10-11-|) becuase it
sounded like kife the way i played it. 
        i know how i do this shit is confusing, so i've got the time
before each part if u have no idea what i'm doing.  whenever i say 'play
this X times then outro' it means after u play the first section X times,
play the area labelled (outro) or (intro) or whatever the case may be. 


h - hammer on
p - pull off
X - muff'd note (use muffled low-d open for all X's in this song)


tuning - 'dropped d' (tune e down full step)


(0:00) intro - repeated several times.


g|------------------------|
d|--7--7--7--7--7h8p7--5--|
a|------------------------|
d|------------------------|


(2:09) pre-chorus - repeated 11 times then outro.
                                           (outro)
g|-----------------------------------|--------------------|
d|-----------------------------------|--------------------|
a|-----------------------------------|--------------------|
d|--2-2-2---X-2-2-2---X-0-2-0-0-0-0--|--2-2-2-2--2-2-2-2--|


(2:37) chorus - repeated 8 times after intro.
     (intro)
g|-------------|------------------------------------------|
d|-------------|------------------------------------------|
a|-------------|------------------------------------------|
g|--7--7-7--9--|--0-2-2--0--0-2-2--0--0-2--5-5-5-5-5--9\--|


(3:12) verse - repeated 12 times.


g|---------------------------------|
d|---------------------------------|
a|---------------------------------|
d|--2-2-2--/10-10-10\5--5-5h6p0-0--|


(3:47) verse breakdown - repeated 3 times, then outro.
                                    (outro)
g|---------------------------|--------------------|
d|---------------------------|--------------------|
a|---------------------------|--------------------|
d|--2-2-2-2--2-2-2-2--2h3p0--|--2-2-2-2--2-2-2-2--|


(3:58) repeat chorus

[ Tab from: http://www.guitartabs.cc/tabs/t/tool/eulogy_btab_ver_2.html ]
(4:33) chorus breakdown - repeated 3 times, then outro.
                                                            (outro)
g|-------------------------------|-------------------------------|
d|-------------------------------|-------------------------------|
a|--0-0-0-0-0--2--------------2--|--0-0-0-0-0--2----------2-0----|
d|-----------------5-5-5-5-5-----|-----------------5-5-5------5--|
(can also replace 0 & 2 on a-string to 7 & 9 on low-d)


(after this i lose interest in names, i just call these 'parts')


(4:44) part 1 main - repeated 2 times (no bass in the first part).


g|------------------------------|
d|------------------------------|
a|------------3-----------------|
d|--0--2-2-X----5-5--5-5h6p5-0--|


(4:52) part 1 (variant) - only used once.


g|--------------------------|
d|--------------------------|
a|------------3-------------|
d|--0--2-2-x----5-5--5-5h6--|
                         ^ bend the g# or slide up.



(4:55) repeat part 1 main, 4 times.


(5:09) part 2 main - repeated 24 times.


g|---------------------------------------|
d|---------------------------------------|
a|---------------------------------------|
d|--0-2-2-2--0-0-0--3-3-3--5-5-5--2-2-2--|


(x:xx) part 2 variant - replace the above with this on the 8th, 12th
                             16th & 20th repetition.
g|-----------------------------------------|
d|-----------------------------------------|
a|--------------------------------6h8-8-8--|
d|--0-2-2-2--0-0-0--3-3-3--5-5-5-----------|


(6:12) part 3 main - repeated 4 times.


g|------------------------------|
d|------------------------------|
a|------------------------------|
d|--0-2--X-0--X-3--X-5--X-2h3p0-|


(6:23) part 4 main - repeated 4 times, then outro.
                (outro)
g|--------------|-----|
d|--------------|-----|
a|-----2--3-----|-----|
d|--2--------5--|--0--|


(6:46) part 5 main - repeated 5 times, then outro.
                         (outro)
g|--------------------|-----------|
d|--------------------|-----------|
a|--------------------|-----------|
d|--2-2-2-2--2-2-2-2--|--2-2--5\--|


(6:57) repeat part 3, 4 times.


(7:07) part 6 - repeated 4 times.


g|---------------------------|
d|--------4---------5--4--0--|
a|-----2---------2-----------|
d|--2---------2--------------|
 
(7:28) repeat part 2, 8 times.


(7:49) repeat part 3, 4 times.


(7:59) repeat part 4, 4 times without outro.


(8:10) part 7 - repeated twice.


g|------------------------------|
d|------------------------------|
a|------------------------------|
d|------10---7-----X-7-----10\--| 


(8:18) part 8 - repeated 3 times, then outro
                                 (outro)
g|--------------------|-----------|
d|--------------------|-----------|
a|--------------------|-----------|
d|--2-2-2-2--2-2-2-2--|--2-2-2-2--|


that's it.  :P


More tool bass tabs at http://www.totalbass.com/
Comments