Tool - Eon Blue Apocalypse Chords & Tabs

 

Eon Blue Apocalypse Chords & Tabs

Tool Chords & Tabs

Version: 9 Type: Tab 0 ratings
1 star 2 stars 3 stars 4 stars 5 stars
comments

Eon Blue Apocalypse Tab

   
I think this is one of the best lead-in songs. Its best to switch to the bridge
pick-up and pick extremely close to the bridge to give it the that pop.
Put some reverb and delay with the threshold up high.

-----------------------------------------------------------------------------
			     Eon Blue Apocalypse - Tool
-----------------------------------------------------------------------------
Tabbed by:Kyle Mandes
Email:MusicInMySoul@gmail.com

THE LEDGEND IS BELLOW THE TABBING

Tuning:Drop-D (DADGBE)

e|---------------------------------------------------| 
B|---------------------------------------------------|
G|---------------------------------------------------|
D|-0000000{repeat this "0" many, many times.}00000000|
A|---h3-h5---h3-h5-----(3)/7---h3-h5---h3-h5---------|
D|----------------h3-h5----------------------h3-h5-p0|
   ^
    über close to the Bridge, Tremelo pick this ALOT.


e|-------------------------------------------------|
B|-------------------------------------------------|
G|-------------------------------------------------|
D|-8p7-7~~~R>>>>>>>>>>>>>>--3/5-5/7-7\3~~~~~~~~~~~~|
A|-------------------------------------------------|
D|------------------------------------------0R>>>>>|
                                            ^ring out as long as possible.

e|--------------------------------------------------------------------------|
B|--------------------------------------------------------------------------|
G|----------------------------------------0-------0--------------------2R>>>|
D|-8p7-7~~~R>>>>>>>>>>>>>>--3/5-5/7-7\5-------0-------0---------0-----0R>>>>|
A|--------------------------------------6---6---6---6---6------------0R>>>>>|
D|>>>>>>>>>>>>>>>>>>>>>>>>>>>>>>>>>>>>>>>>>>>>>>>>>>>>>>>>>>8-7-----0R>>>>>>|
                                       |_________________|<--increase speed
                                            ^   ^----------when playing these 
                                            ^--------------------notes
[ Tab from: http://www.guitartabs.cc/tabs/t/tool/eon_blue_apocalypse_tab_ver_9.html ]
=============================================================================
☼☼☼☼☼☼☼☼I'll include part of "The Patient", as well, 'cause im nice.☼☼☼☼☼☼☼☼☼
    This is only Guitar 1's part, what little bits and pieces that i know.
    I did this for you all, you wonderful Tool fans, so please be greatful
☼☼☼☼☼☼☼☼☼☼☼☼☼☼☼☼☼☼☼☼☼☼☼☼☼☼☼☼☼☼☼☼ Thanks,Kyle ☼☼☼☼☼☼☼☼☼☼☼☼☼☼☼☼☼☼☼☼☼☼☼☼☼☼☼☼☼☼☼☼
=============================================================================

e|-------------------|
B|-------------------|
G|-------------------|
D|---0-2-0-2---2---2-| first bit. Repeat as desired.
A|-----------2---0---|
D|-3R>>>0------------|

e|------------------------------------------------------------|
B|------------------------------------------------------------|
G|------------------------------------------------------------|
D|---------2---------2---------2---------2----------2~~~~~~~~~|
A|-0-3-5-0---0-3-5-0---0-3-5-0---0-3-5-0---0-3-5-0------------|
D|------------------------------------------------------------|
 Then Repeat the first bar, then the second, then this: 


e|------------------------------------------------------------|
B|------------------------------------------------------------|
G|---------2---------2---------2---------2----------2~~~~~~~~~|
D|-0-3-5-0---0-3-5-0---0-3-5-0---0-3-5-0---0-3-5-0------------|
A|------------------------------------------------------------|
D|------------------------------------------------------------|

Then(distorted):

e|--|----------------|
B|--|----------------|
G|--|----------------| Repeat as desired. Start at the "0" 
D|-3|0-5/7-7h8p7\5-3-| (where the line is)when repeating.
A|-3|0-5/7-7h8p7\5-3-|
D|-3|0-5/7-7h8p7\5-3-|


| R> Hold
| /  slide up
| \  slide down
| h  hammer-on
| p  pull-off
| ~  vibrato
| +  harmonic
| x  Mute note

=============================================================================
Thank you, i hope you enjoy my work. please email me with comments, 
corrections or whatever. enjoy. ( MusicInMySoul@gmail.com )
=============================================================================
KYLE MANDES \m/{(>.<)}\m/
Comments