Tool - Eon Blue Apocalypse Chords & Tabs

 

Eon Blue Apocalypse Chords & Tabs

Tool Chords & Tabs

Version: 6 Type: Tab 0 ratings
1 star 2 stars 3 stars 4 stars 5 stars
comments

Eon Blue Apocalypse Tab

   
artist: TOOL
track:#2
album:lateralus
2001: volcano records
tabed by:$GuitarProdogy$
tab date:1/31/03

tuning(d,a,d,g,b,e)
====================

This is a short one but excelent if
you play it the right way!
This is probably one of the most esiest
song to learn off the whole entire album
but some still manage to F#@*k it up!!!!
It is also a good one to play the begining bass
line as the guitar or the beging guitar picking as
the bass,so i'll give you both.

my tuning might be a little off but you can figure
it out of course...


~ ~ ~ ~ ~ ~ ~ ~ ~ ~ ~ ~ ~ ~ ~ ~ ~ ~ ~ ~ ~ ~ ~ ~ ~ ~ ~  ~ ~ ~ ~ ~ ~ ~ ~ ~ ~  ~ ~


                     E~O~N~~~B~L~U~E~~~A~P~O~C~A~L~Y~P~S~E 

~ ~ ~ ~ ~ ~ ~ ~ ~ ~ ~ ~ ~ ~ ~ ~ ~ ~ ~ ~ ~ ~ ~ ~ ~ ~ ~ ~ ~ ~  ~ ~  ~ ~ ~ ~ ~ ~ ~


intro bass:
~~~~~~~~~~~

4:----------------------------------------2----------------------------
3:-------3----------3-------------------------------------3------------
2:--3---------3------------------------------------3-------------------
1:-----------------------3--------5------------------------------------

4:--------------------------------------------------
3:--------3----------------------------------------- let it ring out!
2:--3-----------------------------------------------
1:---------------3---------5----------0*************

~~~~~~~~~~~~~~~~~~~~~~~~~~~~~~~~~~~~~~~~~~~~~~~~~~~~~~~~~~~~~~~~~~~~~~~~~~~~~~~

Intro guitar:
~~~~~~~~~~~~~

play this as soon as the song starts,or on some
certian occasions when your playing the song all
alone you can play the intro bass line as a sub 
so it dosn't just sound like a bunch useless picking.
Thats what I do...
[ Tab from: http://www.guitartabs.cc/tabs/t/tool/eon_blue_apocalypse_tab_ver_6.html ]
tremelo picking:  (Chorus w/delay)
e:-----------------------------------------------------------------------------
b:-----------------------------------------------------------------------------
g:-----------------------------------------------------------------------------
d:-0-0-0-0-0-0-0-0-0-0-0-0-0-0-0-0-0-0-0-0-0-0-0-0-0-0-0-0-0-0-0-0-0-0-0-0-0-0-
a:-----------------------------------------------------------------------------
d:-----------------------------------------------------------------------------
stop playing when the bass is fully finished.

e:---------------------------------------------
b:---------------------------------------------
g:--------------------------------------------- End of intro:
d:-0---0----0-----0----------0********--------- ~~~~~~~~~~~~~
a:---------------------------------------------
d:---------------------------------------------


e:-----------------------------------------------
b:-----------------------------------------------
g:-----------------------------------------------
d:--8~~~/7~~~~---3~~~/5~~~/7~~~\3~~~------------- 2X
a:-----------------------------------------------
d:-------------------------------------0****-----


e:-----------------------------------------------------------------------------
b:-----------------------------------------------------------------------------
g:------6--------------6--------------0-------0--------------------------------
d:--5-------5---6--5-------5--6---0h1---1-2-1---1-2----------0-------0---------
a:-----------------------------------------------------0--1----1-2-1----1-2----
d:-----------------------------------------------------------------------------

e:-------------------
b:-------------------
g:------------2------
d:------------2-sweep!!!
a:------------2------
d:--1---0------------


~~~~~~~~~~~~~~~~~~~~~~~~~~~~~~~~~~~~~~~~~~~~~~~~~~~~~~~~~~~~~~~~~~~~~~~~~~~~~~~

                               
That should be 100% correct exept for the tuning.This is an 
amazing little solo and it's fun to play too.If you have any doubts
or trouble with this song,or if you want to learn how to play any 
other songs from any other bands e-mail me at senorjacob@msn.com and
i'll be sure to get back to you in three days or at the most maybe even
a week.

This is my second song that i've tabed on this site.
(triad ver.2& this one).
I got my old e-mail address mixed up with my new one
on triad ver.2 so now is your chance to get the right
one.Hopefully i'll get that fixed very soon!!!!!!!!!

Have loads of fun with this song and expect many more tabs
from these specific artists...

TOOL,311,a perfect circle,deftones,nine inch nails,dave mathews band &
rage aginst the machine.

(ESPESCIALLY TOOL & A PERFECT CIRCLE)
~~~~~~~~~~~~~~~~~~~~~~~~~~~~~~~~~~~~~~~~~~~~~~~~~~~~~~~~~~~~~~~~~~~~~~~~~~~~~~~
Comments