Tool - Eon Blue Apocalypse Chords & Tabs

 

Eon Blue Apocalypse Chords & Tabs

Tool Chords & Tabs

Version: 2 Type: Tab 0 ratings
1 star 2 stars 3 stars 4 stars 5 stars
comments

Eon Blue Apocalypse Tab

   
drop-d tuning

intro
guitar 1 (Fast up-down strokes)continues through guitar 2 riff
then slows to a stop
E----------------------------
B-----------------------------
G----------------------------
D--00000000000000000000---------
A-----------------------------
D----------------------------


guitar2
E-----------------------------------------------
B-------------------------------------------------
G----------------------------------------------------
D-------------------------------------5-(hold)-----
A----3---5-(hold)----3---5------------------3---5(hold)-
D--------------------------3---5(hold)-----------
[ Tab from: http://www.guitartabs.cc/tabs/t/tool/eon_blue_apocalypse_tab_ver_2.html ]
E-------------------------------------------------------
B--------------------------------------------------------
G----------------------------------------------------------
D------------------------------------
A---3---5------------------
D---------3---5---0-(hold)------------



Main riff

E-------------------------------------------------------
B----------------------------------------------------
G---3p2----2--2------------------------3p2---2----2
D-----------------3h5---3/7\3-(hold)----------------3h5/7\5
A--------------------------------------------------------------
D-----------------------------------0(let ring throughout)

let all this ring
E----------------------------------
B--------------------------------
G----------------------------------2
D-----5--------5-------------------0
A---6---6--5h6----6--5h6---1---0---0
D----------------------------------


Comments