Tool - Eon Blue Apocalypse Chords & Tabs

 

Eon Blue Apocalypse Chords & Tabs

Tool Chords & Tabs

Version: 1 Type: Tab 0 ratings
1 star 2 stars 3 stars 4 stars 5 stars
comments

Eon Blue Apocalypse Tab

Eon Blue Apocalypse 
Tool 
Tabbed by: Darren Bencosky

Drop D- Tuning

This is just the main guitar part

//= Slide    h= Hammer on     p= pull off

-----------------------------------------------
-----------------------------------------------
-----3-------2------------0h2------------------
-0-------0-------3-//-5---------3--------------
-----------------------------------------------
-----------------------------------------------

[ Tab from: http://www.guitartabs.cc/tabs/t/tool/eon_blue_apocalypse_tab.html ]
-----------------------------------------------
-----------------------------------------------
-----3-------2------------0h2p0----------------
-0-------0-------3-//-5------------------------
-----------------------------------------------
-----------------------------------------------


------------------------------------------------
--------------------------------------------3---
--------------------------------------------2---
-----0----------0----------0----------------0---
--------6-----------6----------6----------------
-0----------0-----------0-----------8---6-------
Comments